Приветствую Вас, Гость! Регистрация RSS
Понедельник, 19.11.2018
Главная » Статьи » Лирика » Табы

Transistor Revolt
the art of losing

By:Bnoit Bedard
ti_ben85@hotmail.com

#=X3
^=let ring
m=palm mute

intro
----------------
--------------#-
--^----^---9-7--
-2----2----9-7--
-2--2------7-5--
-2--------------

verse
----------------------------------------------------------
----------------------------------------------------------
-9-7-9-10-9-7--9-7-9-10-9-7--9-7-9-10-9-7--12-11-9-10-9-7- X2
-9-7-9-10-9-7--9-7-9-10-9-7--9-7-9-10-9-7--12-11-9-10-9-7-
-7-5-7--8-7-5--7-5-7--8-7-5--7-5-7--8-7-5--10--9-7--8-7-5-
----------------------------------------------------------

chorus
----------------------m-------------------------------------
--#-----------#-----------#-----------#-------------------#-
-5---#--#--#-5---#--#--#-5---#--#--#-5---#--#--------^---7--
-5--5--9--9--5--5--9--7--5--5--9--9--5--5--9--9-7-5-2----7--
-3--5--9--9--3--5--9--7--3--5--9--9--3--5--9--9-7-5-2----5--
----5--9--9-----5--9--7-----5--9--9-----5--9--9-7-5-2-------

verse

chorus
----------------------m----------------------------------------
--#-----------#-----------#-----------#-------------------#--^-
-5---#--#--#-5---#--#--#-5---#--#--#-5---#--#--------^---7--9--
-5--5--9--9--5--5--9--7--5--5--9--9--5--5--9--9-7-5-2----7--9--
-3--5--9--9--3--5--9--7--3--5--9--9--3--5--9--9-7-5-2----5--7--
----5--9--9-----5--9--7-----5--9--9-----5--9--9-7-5-2----------

bridge
-----------------------------------------------------
-----------------------------------------------------
--#-5--#----#-4-5-4-2-4--#-5--#---#-4-5-4-2-4---2--- X2
-2--5-5--2-2--4-5-4-2-4-2--5-5---2--4-5-4-2-4-5-2-2-
-2--3-5--2-2--2-3-2-0-2-2--3-5---2--2-3-2-0-2-5-0-2-
-2----5--2-2------------2----5---2------------5---2-

-m--m-m--m-m--m-m-m-m-m-m--m-m---m------------------
----------------------------------------------------
--#-5--#----#-4-5-4-2-4--#-5--#---#-4-5-4-2-4---2--- X2
-2--5-5--2-2--4-5-4-2-4-2--5-5---2--4-5-4-2-4-5-2-2-
-2--3-5--2-2--2-3-2-0-2-2--3-5---2--2-3-2-0-2-5-0-2-
-2----5--2-2------------2----5---2------------5---2-

----------------------------------------------------
----------------------------------------------------
--#-5--#----#-4-5-4-2-4--#-5--#---#-4-5-4-2-4---2---
-2--5-5--2-2--4-5-4-2-4-2--5-5---2--4-5-4-2-4-5-2-2-
-2--3-5--2-2--2-3-2-0-2-2--3-5---2--2-3-2-0-2-5-0-2-
-2----5--2-2------------2----5---2------------5---2-

--------------------------------------------m-m-m-m----m-m-
-----------------------------------------------------------
--#-5--#----#-4-5-4-2-4--#-5--#---#-4-5-4-2-4---2----^-----
-2--5-5--2-2--4-5-4-2-4-2--5-5---2--4-5-4-2-4-5-2-2-2--2-2-
-2--3-5--2-2--2-3-2-0-2-2--3-5---2--2-3-2-0-2-5-0-2-2--2-2-
-2----5--2-2------------2----5---2------------5---2-2--2-2-


401 kill


#=X3
o=X4
%=X5
*=X6
m=palm mute
^=let ring

intro
-m-m-m-----------------------------------m-m-----m-m----------
------------------#----#--#---#-----#--#------------------#--#-
------------#--#-6--6-9--6---------------6-6-6-6-6-6-6-6-7--6--
-4-4-4-4-4-7--9--x--x-x--x--11--11-9--7--6-6-6-6-6-6-6-6-x--x-- X2
-4-4-4-4-4-7--9--4--4-7--4---9---9-7--5--4-4-4-4-4-4-4-4-5--4--
-4-4-4-4-4-7--9------------------------------------------------

verse 1
-------m-m----------------------------------------
----------------------#----*---#-----#--#--#----*-
--^--^----------#--#-6--6-6---------------6--6-6--
-4--4--4-4-4-4-7--9--6--6-6--11--11-9--7--6--6-6--
-4--4--4-4-4-4-7--9--4--4-4---9---9-7--5--4--4-4--
-2--2--2-2-2-2-5--7-------------------------------

chorus
-----------------------------------------------------
----o--o---o---o---*---*----o--o---o---o---*---#---#-
-6-7--9--11--14--13--10--6-7--9--11--14--13--16--13--
-x-x--x---x---x---x---x--x-x--x---x---x---x---x---x--
-4-5--7---9--12--11---8--4-5--7---9--12--11--14--11--
-----------------------------------------------------

---------------------------------------------
----o--o---o---o---*---*----o--o---o---o---*-
-6-7--9--11--14--13--10--6-7--9--11--14--13--
-x-x--x---x---x---x---x--x-x--x---x---x---x--
-4-5--7---9--12--11---8--4-5--7---9--12--11--
---------------------------------------------

intro X1

verse 2 guitar 1

-m-m----m-m--------m-m----m-m------------------
-----------------------------------------------
-------------------------------^---------------
-4-4-4--4-4-4------4-4-4--4-4-4----------------
-4-4-4--4-4-4------4-4-4--4-4-4----------------
-4-4-4--4-4-4------4-4-4--4-4-4---pick-slide---

-m-m----------------------------------------
----------------#----*---#-----#--#--#----*-
----------#--#-6--6-6---------------6--6-6--
-4-4-4-4-7--9--6--6-6--11--11-9--7--6--6-6--
-4-4-4-4-7--9--4--4-4---9---9-7--5--4--4-4--
-4-4-4-4-7--9-------------------------------

Verse 2 guitar 2
-------------------------------------------
---------------------**--------------------
-------------7-6---11----------------------
-----------------7--x----------------------
--------------------9----------------------
-------------------------------------------

-m-m----------------------------------------
----------------#----*---#-----#--#--#----*-
----------#--#-6--6-6---------------6--6-6--
-4-4-4-4-7--9--6--6-6--11--11-9--7--6--6-6--
-4-4-4-4-7--9--4--4-4---9---9-7--5--4--4-4--
-4-4-4-4-7--9-------------------------------

chorus

bridge

------- ---------------------------
------- --#-----#-----#------*---*-
-16-13- -7---*-7---*-7---*--9--13-- X2
--x--x- -7--4--7--4--7--4---x---x--
-14-11- -5--4--5--4--5--4---7--11--
------- ----4-----4-----4----------

--------------------------------
---%---%---%---%----------------
-11--11--14--13----%---%---%--%-
--x---x---x---x--11--11--12--9-- X2
--9---9--12--11---x---x---x--x--
-----------------11--11--12--9--

----------------------------------------------------------------------
----------------------------------------------------------------------
---------------------------------------------------------------------- X2
--*--#------------------------------*--#-------------9-7-6--7--6------
-9--9--11-12-11------*--#---#------9--9--11-12-11-----------------7-4-
----------------14-11-11--14-11-14----------------14------------------

 

g1--- g2-^
---^- -11-
-11-- -x--
-11-- -9--
-11-- ----


 JOIN THE RANKS ------------------------------------------------------------------------------- Tabbed by: strungout777 Email: manuel_ramones4life@gmx.at Verse: e|---------------------------------------------------------------------------| B|---------------------------------------------------------------------------| G|-8-8--6--8-8--6--8-8--6-------3--4-4-4--6-6-6--8-8-8-8---------------------| D|-8-8--6--8-8--6--8-8--6--4-4--3--4-4-4--6-6-6--8-8-8-8---------------------|x2 A|-6-6--4--6-6--4--6-6--4--4-4--1--2-2-2--4-4-4--6-6-6-6---------------------| E|-------------------------2-2-----------------------------------------------| Chorus: e|---------------------------------------------------------------------------| B|---------------------------------------------------------------------------| G|-4-4-4-4-4-4--8-8-8-6-6-6--4-4-4-4-4-4-------------------------------------| D|-4-4-4-4-4-4--8-8-8-6-6-6--4-4-4-4-4-4--6-6-6-8-8-8------------------------| A|-2-2-2-2-2-2--6-6-6-4-4-4--2-2-2-2-2-2--6-6-6-8-8-8------------------------| E|----------------------------------------4-4-4-6-6-6------------------------| e|---------------------------------------------------------------------------| B|---------------------------------------------------------------------------| G|-4-4-4-4-4-4--8-8-8-6-6-6--------------------------------------------------| D|-4-4-4-4-4-4--8-8-8-6-6-6--4-4-4-4-4-4--8-8-8-8-8-8------------------------| A|-2-2-2-2-2-2--6-6-6-4-4-4--4-4-4-4-4-4--8-8-8-8-8-8------------------------| E|---------------------------2-2-2-2-2-2--6-6-6-6-6-6------------------------| Verse: e|---------------------------------------------------------------------------| B|---------------------------------------------------------------------------| G|-8-8--6--8-8--6--8-8--6-------3--4-4-4--6-6-6--8-8-8-8---------------------| D|-8-8--6--8-8--6--8-8--6--4-4--3--4-4-4--6-6-6--8-8-8-8---------------------|x2 A|-6-6--4--6-6--4--6-6--4--4-4--1--2-2-2--4-4-4--6-6-6-6---------------------| E|-------------------------2-2-----------------------------------------------| Chorus: e|---------------------------------------------------------------------------| B|---------------------------------------------------------------------------| G|-4-4-4-4-4-4--8-8-8-6-6-6--4-4-4-4-4-4-------------------------------------| D|-4-4-4-4-4-4--8-8-8-6-6-6--4-4-4-4-4-4--6-6-6-8-8-8------------------------| A|-2-2-2-2-2-2--6-6-6-4-4-4--2-2-2-2-2-2--6-6-6-8-8-8------------------------| E|----------------------------------------4-4-4-6-6-6------------------------| e|---------------------------------------------------------------------------| B|---------------------------------------------------------------------------| G|-4-4-4-4-4-4--8-8-8-6-6-6------------------------------8~------------------| D|-2-2-2-2-2-2--6-6-6-4-4-4--4-4-4-4-4-4--8-8-8-8-8-8----x-------------------| A|-2-2-2-2-2-2--6-6-6-4-4-4--x-x-x-x-x-x--x-x-x-x-x-x----6~------------------| E|---------------------------2-2-2-2-2-2--6-6-6-6-6-6------------------------| Bridge e|---------------------------------------------------------------------------| B|---------------------------------------------------------------------------| G|-11-10-6-8~--6/8--11-10-8-11-10-8--11-11-11-13-13-13-15-15-15-15-15-15-----| D|--x--x-x-x~--x/x---x--x-x--x--x-x---x--x--x--x--x--x--x--x--x--x--x--x-----| A|--9--8-4-6~--4/6---9--8-6--9--8-6---9--9--9-11-11-11-13-13-13-13-13-13-----| E|---------------------------------------------------------------------------| Chorus e|---------------------------------------------------------------------------| B|---------------------------------------------------------------------------| G|-4-4-4-4-4-4--8-8-8-6-6-6--4-4-4-4-4-4-------------------------------------| D|-4-4-4-4-4-4--8-8-8-6-6-6--4-4-4-4-4-4--6-6-6-8-8-8------------------------| A|-2-2-2-2-2-2--6-6-6-4-4-4--2-2-2-2-2-2--6-6-6-8-8-8------------------------| E|----------------------------------------4-4-4-6-6-6------------------------| e|---------------------------------------------------------------------------| B|---------------------------------------------------------------------------| G|-4-4-4-4-4-4--8-8-8-6-6-6--------------------------------------------------| D|-4-4-4-4-4-4--8-8-8-6-6-6--4-4-4-4-4-4--8-8-8-8-8-8------------------------| A|-2-2-2-2-2-2--6-6-6-4-4-4--4-4-4-4-4-4--8-8-8-8-8-8------------------------| E|---------------------------2-2-2-2-2-2--6-6-6-6-6-6------------------------| e|---------------------------------------------------------------------------| B|---------------------------------------------------------------------------| G|-8-8--6--8-8--6--8-8--6--8-------------------------------------------------| D|-8-8--6--8-8--6--8-8--6--8-------------------------------------------------| A|-6-6--4--6-6--4--6-6--4--6-------------------------------------------------| E|---------------------------------------------------------------------------| Solo: e|---------------------------------------14p12p11-14p12p11-14p12p11-14p12p11-| B|-10b11-10b11-10b11-10b12-14-12-11-11-11------------------------------------| G|---------------------------------------------------------------------------| D|---------------------------------------------------------------------------| A|---------------------------------------------------------------------------| E|---------------------------------------------------------------------------| e|-14-16-13-13-13-18-18-16-14-16-14---------14-16-14-13-16p1418p1416p1418p14- B|----------------------------------18-16-18---------------------------------| G|---------------------------------------------------------------------------| D|---------------------------------------------------------------------------| A|---------------------------------------------------------------------------| E|---------------------------------------------------------------------------| e|-16p1418p1416p1418p1416p1318p1316p1318p1316p1318p1316p1318p13--------------| B|--------------------------------------------------------------15b16-15b16--| G|---------------------------------------------------------------------------| D|---------------------------------------------------------------------------| A|---------------------------------------------------------------------------| E|---------------------------------------------------------------------------| e|-------------------17b18-17b18-16-17b18~-----------------------------------| B|-14-15b16-15b16-14---------------------------------------------------------| G|---------------------------------------------------------------------------| D|---------------------------------------------------------------------------| A|---------------------------------------------------------------------------| E|---------------------------------------------------------------------------| | / slide up | \ slide down | h hammer-on | p pull-off | ~ vibrato | + harmonic | x Mute note</pre></font>

Категория: Табы | Добавил: Riot (20.12.2007)
Просмотров: 775 | Рейтинг: 0.0/0
Всего комментариев: 0
Добавлять комментарии могут только зарегистрированные пользователи.
[ Регистрация | Вход ]