Приветствую Вас, Гость! Регистрация RSS
Понедельник, 23.04.2018
Главная » Статьи » Лирика » Табы

Rise Against - 2006 - AOL Sessions Under Cover (Rerip Complete Set)
For What It's Worth
Buffalo Springfield


F# A ]
Stop children, what's that sound ] repeat twice
B ]
Everybody look what goin' on ]

F# A B
F# A B

F# A B
There's something happening here
F# A B
And what it is ain't exactly clear
F# A B
There's a man with a gun over there
F# A B
Telling me that I've got to beware

F# A
Stop children, what's that sound
B
Everybody look what goin' on

There's battle lines being drawn
And nobody's right, if everybody's wrong
Young people speaking their minds
'Re getting so much resistance from behind

CHORUS 4 times


RIFF:
E A
E --------------------------
B --------------------------
G --------------------2-----
D -------2--------2h4---4-2-
A ---2h4---4-2--0-----------
E -0------------------------


Prayer of the Refugee (Acoustic)




Tuning: Eb Ab Db Gb Bb Eb


CHORDS USED

G5: 3x003x

Csus4: 033x10
D5: xx023x
Em7: 02203x
Am7: x0221x
F/C: x3321x


INTRO
Eb|--------------------------|
Bb|-8-77-88-77-88-77-88-77---|
Gb|-9-99-99-99-99-99-99-99---|
Db|--------------------------|
Ab|--------------------------|
Eb|--------------------------|

VERSE I (Switch from double-stops to chords half way through the lyrics. I provided for
halves (A) so you have options and (B) how lazy could I be?)
Eb|-----------------------------------------------------|
Bb|-88-77-88-77-88-77-88-77-88-77-88-77-88-77-55-5555---|
Gb|-99-99-99-99-99-99-99-99-99-99-99-99-99-99-44-4444---|
Db|-----------------------------------------------------|
Ab|-----------------------------------------------------|
Eb|-----------------------------------------------------|

G Csus4
Warm yourself by the fire son,
D5 Csus4
And the morning will come soon.
G Csus4
I'll tell you stories of a better time,
D5 Csus4
In a place that we once knew.
G Csus4
Before we packed our bags and left all this,
D5 Csus4
Behind us in the dust,
G Csus4
We had a place that we could call home,
D5 Csus4
And a life no one could touch.

CHORUS
Em7
Don't hold me up now,
G
I can stand my own ground
D5
I don't need your help now,
Csus4
You won't let me down, down, down,
Em7
Don't hold me up now,
G
I can stand my own ground
D5
I don't need your help now,
Csus4
You won't let me down, down, down, down...


RE-INTRO
Eb|--------------------------|
Bb|-8-77-88-77-88-77-88-77---|
Gb|-9-99-99-99-99-99-99-99---|
Db|--------------------------|
Ab|--------------------------|
Eb|--------------------------|

VERSE II (Again, switch from double-stops to chords half way through the lyrics.)
Eb|-----------------------------------------------------|
Bb|-88-77-88-77-88-77-88-77-88-77-88-77-88-77-55-5555---|
Gb|-99-99-99-99-99-99-99-99-99-99-99-99-99-99-44-4444---|
Db|-----------------------------------------------------|
Ab|-----------------------------------------------------|
Eb|-----------------------------------------------------|

G Csus4
We are the angry and the desperate,
D5 Csus4
The hungry and the cold.
G Csus4
We are the ones who kept quiet,
D5 Csus4
And always did what we were told.
G Csus4
But we've been sweating while you slept so calm,
D5 Csus4
In the safety of your home.
G Csus4
We've been pulling out the nails that hold up,
D5 Csus4
Everything you've known.

CHORUS
Em7
Don't hold me up now,
G
I can stand my own ground
D5
I don't need your help now,
Csus4
You won't let me down, down, down,
Em7
Don't hold me up now,
G
I can stand my own ground
D5
I don't need your help now,
Csus4 Am
You won't let me down, down, down...

BRIDGE I
(Am) G Am
So open your eyes child, let’s be on our way,
G Am
Broken windows and ashes are guiding the way.
G F/C
Keep quiet no longer, we'll sing through the day,
Em Csus4 G5 D5
Of the lives that we've lost, and the lives we've reclaimed.

BRIDGE II
H Q Q H Q Q H Q Q H H
Eb|------------------------------------------------|
Bb|------------------------------------------------|
Gb|-9----11-12--9----11-12--9----11-12--9----7-----|
Db|-x-----x--x--x-----x--x--x-----x--x--x----x-----|
Ab|-7-----9-10--7-----9-10--7-----9-10--7----5-----|
Eb|------------------------------------------------|

BRIDGE III
S TTS TT S S S S S TTS TT S S S S
Eb|-------------------------------------------------|
Bb|-------------------------------------------------|
Gb|-16--xx12--xx16-17-16-14-16--xx12--xx16-17-16-14-|
Db|--x--xx-x--xx-x--x--x--x--x--xx-x--xx-x--x--x--x-|
Ab|-14--xx10--xx14-15-14-12-14--xx10--xx14-15-14-12-|
Eb|-------------------------------------------------|

S TTS TT S S S S S TT S TT S TT E
Eb|-------------------------------------------------|
Bb|-------------------------------------------------|
Gb|-14--xx14--xx14-14-14-12-16--xx16--xx16--xx16~---|
Db|--x--xx-x--xx-x--x--x--x--x--xx-x--xx-x--xx-x----|
Ab|-12--xx12--xx12-12-12-10-14--xx14--xx14--xx14~---|
Eb|-------------------------------------------------|


INTERLUDE Csus4
Eb|-------------------x----|
Bb|-8-77-88-77-88-77-53----|
Gb|-9-99-99-99-99-99-40----|
Db|-------------------x----|
Ab|-------------------3----|
Eb|------------------------|

CHORUS/OUTRO
Em7
Don't hold me up now,
G
I can stand my own ground
D5
I don't need your help now,
Csus4
You won't let me down, down, down,
Em7
Don't hold me up now,
G
I can stand my own ground
D5
I don't need your help now,
Csus4
You won't let me down, down, down,
Em7 G <--(Chords are muted every fourth Don’t hold me
sixteenth note.)
D5 Csus4
Don’t hold me up..... No, no, no,
Em7 G <--(Resume normal strumming.)
Don’t hold me up.....
D5
Don’t hold me up.....
Csus4 Em7
Don’t let me down, down, down, down, down.


READY TO FALL ACOUSTIC - Rise Against
-------------------------------------------------------------------------------

Tuning: Half-Step Down [Eb Ab Db Gb Bb Eb]


Dsus xx023x


G5=Gm

a# = b

Intro: Dsus2 G5 A# [4x] C

Verse 1:
Dsus2 A# G5 A# C
Hold on slow down again from the top now and tell me everything
Dsus2
I know I've been gone for what seems like forever
A# G5 A# C
But I'm here now waiting
Dsus2
To convince you that I'm not a ghost or a stranger
A# G5 A# C
But closer than you think
Dsus2
She said, "Just go on to what you

Pretend is your life but
A# G A# C
Please don't die on me"


Refrain:
A# Dsus2 [or G5]
Wings won't take me
A# Dsus2 [or G5]
Heights don't phase me
A#
So take a step
G5
But don't look down
A# C
Take a step


Chorus:
Dsus2 G5 A#
Now I'm standing on the rooftop ready to fall
Dsus2 G5 A#
I think I'm at the edge now but I could be wrong
Dsus2 G5 A# Dsus2 G5 A# C
I'm standing on the rooftop ready to fall


Verse 2:
Perpetual motion the image won't focus
A blur is all that's seen
But here in this moment like the eye of the storm
It all came clear to me
I found a shoulder to lean on
An infallible reason to live all by itself
I took one last look from the heights that I once loved
And then I ran like hell


Refrain:
Wings won't take me
Heights don't phase me
So take a step
But don't look down
Take a step


Chorus:
Dsus2 G5 A#
Now I'm standing on the rooftop ready to fall
Dsus2 G5 A#
I think I'm at the edge now but I could be wrong
Dsus2 G5 A# Dsus2 G5 A#
I'm standing on the rooftop ready to fall



Coda:
C
I count the times that I've been sorry
A#
I know, I know
C
Now my compassion slowly drowns
A#
I know, I know
C
If there's a time these walls could guard you
A#
I know, I know
C
Then let that time be right now

Dsus2 G5 A# 3x

Dsus2 G5 A#
Now I'm standing on the rooftop
Dsus2 G5 A#
Now I'm standing on the rooftop ready to fall

Dsus2 G5 A#
Now I'm standing on the rooftop ready to fall
Dsus2 G5 A#
I think I'm at the edge now but I could be wrong
Dsus2 G5 A# Dsus2 G5 A#
I'm standing on the rooftop ready to fall


Dsus2 G5 A#
Now I'm standing on the rooftop ready to fall
Dsus2 G5 A#
Now I'm standing on the rooftop ready to fall
Dsus2 G5 A#
Now I'm standing on the rooftop ready to fall
Dsus2 G5 A# Dsus2
Now I'm standing on the rooftop ready to fall



SWING LIFE AWAY

Tuning: Eb, Ab, Db, Gb, Bb, eb

Guitar 1 3x
e|-------------------------------------------------------------------------|
B|-<12>--------------------<7>---------------------------------------------|
G|------<12>----------<12>-----<7>-----------------------------------------|
D|-----------<12>-<7>------------------------------------------------------|
A|-------------------------------------------------------------------------|
E|-------------------------------------------------------------------------|

Guitar 2 3x
e|-------------------------------------------------------------------------|
B|-0------------3-33333-3333-----------------------------------------------|
G|--0---2-0-----0-00000-0000-----------------------------------------------|
D|---0-----4----x-xxxxx-xxxx-----------------------------------------------|
A|--------------3-33333-3333-----------------------------------------------|
E|-------------------------------------------------------------------------|
Guitar 2
e|-------------------------------------------------------------------------|
B|--3-33333-33333-33333x---------------------------------------------------|
G|--2-22222-22222-22222x---------------------------------------------------|
D|--0-00000-00000-00000x---------------------------------------------------|
A|--0-00000-00000-00000x---------------------------------------------------|
E|-------------------------------------------------------------------------|

Verse 3x Repeat this line
e|------------------------------|------------------------------------------|
B|-:--------------------------:-|-3---33333-33333-33333--------------------|
G|---------------5-55555-5555---|-0---00000-00000-00000x-------------------|
D|---2-22225-55555-55555-5555---|-4---44444-44444-44444x-------------------|
A|-:-2-22225-55553-33333-3333-:-|-5---55555-55555-55555x-------------------|
E|---0-00003-3333---------------|------------------------------------------|
pm x x x x x x x x
Let up on pm 2nd time

Chorus
e|---0-0000------------------0-0000---------------------|------------------|
B|-:-0-00003-33333-33333-33330-00003-33333-33333-3333-:-|-3-33333x---------|
G|---x-xxxx0-00000-00002-2222x-xxxx0-00002-22222-2222---|-2-22222x---------|
D|---2-22220-0000x-xxxx0-00002-22220-00000-00000-0000---|-0-00000x---------|
A|-:-2-2222x-xxxx3-33330-00002-2222x-xxxx0-00000-0000-:-|-0-00000x---------|
E|---0-00003-3333------------0-00003-3333---------------|------------------|


Verse

Chorus (don't cut off last chord)


Bridge 2x
e|-0-00003-33333-33333-3333------------------------------------------------|
B|-0-00003-33333-33333-3333------------------------------------------------|
G|-x-xxxx0-00000-00000-0000------------------------------------------------|
D|-2-22220-0000x-xxxxx-xxxx------------------------------------------------|
A|-2-2222x-xxxx3-33333-3333------------------------------------------------|
E|-0-00003-3333------------------------------------------------------------|

e|-0-00003-33330-00003-3333------------------------------------------------|
B|-0-00003-33331-11113-3333------------------------------------------------|
G|-x-xxxx0-00002-22220-0000------------------------------------------------|
D|-2-22220-00002-2222x-xxxx------------------------------------------------|
A|-2-2222x-xxxx0-00003-3333------------------------------------------------|
E|-0-00003-3333------------------------------------------------------------|

e|-0-00003-33333-33333-33333-3333-------3----------------------------------|
B|-0-00003-33333-33333-33333-3333-0-----3----------------------------------|
G|-x-xxxx0-00000-00000-00000-0000---0---0----------------------------------|
D|-2-22220-0000x-xxxxx-xxxxx-xxxx-----0-0----------------------------------|
A|-2-2222x-xxxx3-33333-33333-3333-------x----------------------------------|
E|-0-00003-3333-------------------------3----------------------------------|



Tour Song Acoustic Chords by Rise Against, www.Ultimate-Guitar.Com

Rise Against - Tour Song

Intro: Em

Em G
Seven hundred miles to play to fifteen angry men.
D Em
I need some sleep.
Em G
They hate the songs We hate them too
D Em
This show is free

Em G
Twenty minutes in broke another fucking string.
D Em
Just call it luck
Em G
I start to plead They start to leave someone
D Em
Someone yells you suck

[pre-Chorus]
C G A
Suddenly that joe kicks hard in my veins
B C
I cool down
Em D C
Things sound good right now
G A B C
Suddenly fists turn into brave ears, move as one
Em D A
Funny how no one knows we came
Em D C
They wouldn't come anyway
Em D A
Should I feel grateful to play
Em D C
I'm living life my way

[Chorus]
Em G D A
I fell in love with my enemy
Em G D A
I let go of everything I had left at home

Em G D A
I fell in love with my enemy
Em G D A
I let go of everything I had left at home

repeat Intro

Em G
Two cool people came They're hiding by the door.
D Em
Eyes wide with fright
Em G
A guy, a girl, in love with the whole world
D Em
It almost makes it right

[pre-Chorus]
C G A
Suddenly that joe kicks hard in my veins
B C
I cool down
Em D C
Things sound good right now
G A B C
Suddenly fists turn into brave ears, move as one
Em D A
Funny how no one knows we came
Em D C
They wouldn't come anyway
Em D A
Should I feel grateful to play
Em D C
I'm living life my way

[Chorus]
Em G D A
I fell in love with my enemy
Em G D A
I let go of everything I had left at home

Em G D A
I fell in love with my enemy
Em G D A
I let go of everything I had left at home


Every little thing must go wrong... Em G D A...

End.

Категория: Табы | Добавил: REMO (19.01.2008)
Просмотров: 911 | Рейтинг: 0.0/0
Всего комментариев: 0
Добавлять комментарии могут только зарегистрированные пользователи.
[ Регистрация | Вход ]