Приветствую Вас, Гость! Регистрация RSS
Вторник, 11.12.2018
Главная » Статьи » Лирика » Табы

Siren Song of the Counter Culture - 1
-----------------------------------------------------------------------------
STATE OF THE UNION - Rise Against
-----------------------------------------------------------------------------
Tabbed by:Tcurtis
Email: punkguy4182@yahoo.com

Tuning: D-A-D-G-B-E

Intro:
e|--------------------------------------------------------------------------|
B|--------------------------------------------------------------------------|
G|--------------------------------------------------------------------------|
D|-1111222233334444---------------------------------------------------------|
A|-1111222233334444---------------------------------------------------------|
E|-1111222233334444---------------------------------------------------------|

pre-verse:
e|--------------------------------------------------------------------------|
B|--------------------------------------------------------------------------|
G|---888------------888------------888--------------------------------------|
D|-1-888-4h66664--1-888-4h66666--1-888-4h66664--1-4-6-7-6-4-1~~1------------|
A|-1-666-4h66664--1-666-4h66666--1-666-4h66664--1-4-6-7-6-4-1~~1------------|
E|-1-----4h66664--1-----4h66666--1-----4h66664--1-4-6-7-6-4-1~~1------------|
pm: . . . . . .

verse pt1:
e|-----------------------------------------------------------------|
B|-----------------------------------------------------------------|
G|-3-----3-------6666-4-3-----3-------44444-3----------------------|
D|-3-1---3-1---1-6666-4-3-1---3-1---1-44444-3-1--------------------|
A|-1-1---1-1---1-4444-2-1-1---1-1---1-22222-1-1--------------------|
E|---1-----1---1----------1-----1---1---------1--------------------|

verse pt2 (guitar 1):
e|--------------------------------------------------------------------------|
B|--------------------------------------------------------------------------|
G|-3-------6666-4-3-----3---4444444444446666--------------------------------|
D|-3-1---1-6666-4-3-1---3-1-4444444444446666--------------------------------|
A|-1-1---1-4444-2-1-1---1-1-2222222222224444--------------------------------|
E|---1---1----------1-----1-------------------------------------------------|

verse pt2 (guitar 2):
e|--------------------------------------------------------------------------|
B|--------------------------------------------------------------------------|
G|-8------------------------------------------------------------------------|
D|-x-(x a lot, you can hear it if you listen)-------------------------------|
A|-6------------------------------------------------------------------------|
E|--------------------------------------------------------------------------|

chorus:
e|--------------------------------------------------------------------------|
B|--------------------------------------------------------------------------|
G|---888------------888------------888--------------------------------------|
D|-1-888-4h66664--1-888-4h66666--1-888-4h66664--1-4-6-7-6-4-1---------------|
A|-1-666-4h66664--1-666-4h66666--1-666-4h66664--1-4-6-7-6-4-1---------------|
E|-1-----4h66664--1-----4h66666--1-----4h66664--1-4-6-7-6-4-1---------------|
pm: . . . . . .

pre-bridge:
e|--------------------------------------------------------------------------|
B|--------------------------------------------------------------------------|
G|--------------------------------------------------------------------------|
D|-1-4-6-7-6-4-1-4-6-7-6-4--------------------------------------------------|
A|-1-4-6-7-6-4-1-4-6-7-6-4--------------------------------------------------|
E|-1-4-6-7-6-4-1-4-6-7-6-4--------------------------------------------------|
pm:. . . . . . . . . . . .

bridge pt1:
e|---------------------------------------------------------------|
B|---------------------------------------------------------------|
G|-----8---------------------------------------------------------|
D|-----8-70060040------------------------------------------------|
A|-----6-70060040-x3---------------------------------------------|
E|-4-1---70060040------------------------------------------------|
pm: .. .. .

bridge pt2:
e|---------------------------------------------------------------|
B|---------------------------------------------------------------|
G|---------------------------------------------------------------|
D|-1-4-6-7-6-4---------------------------------------------------|
A|-1-4-6-7-6-4---------------------------------------------------|
E|-1-4-6-7-6-4---------------------------------------------------|
pm:. . . . . .

End On:
e|--------|
B|--------|
G|--------|
D|-1~-----|
A|-1~-----|
E|-1~-----|

ORDER:
Intro x4
pre-verse x2
verse pt1 x1
verese pt2 x1
chorus x2
verse pt1 x1
verse pt2 x1
chorus x2
pre-bridge x1
bridge pt1 x1
bridge pt2 x1
bridge pt1 x1
bridge pt2 x1
bridge pt1 x1
bridge pt2 x3
End On

| / slide up
| \ slide down
| h hammer-on
| p pull-off
| ~ vibrato
| + harmonic
=============================================================================

THE FIRST DROP
===================================================
Intro 4x

e |---------------------------------------------------------------------||
H |---------------------------------------------------------------------||
G |-2222-5555-----------------------------------------------------------||
D |-2222-5555-5555-3333-------------------------------------------------||
A |-0000-3333-5555-3333-------------------------------------------------||
E |-----------3333-1111-------------------------------------------------||

Leadpart
e |-----------------------------------------|----------|----------------||
H |-----------------------------------------|----------|----------------||
G |-9-9-9-9-9-14-14-14-14-14-10-10-10-10-10-|-10-12-10-|-17-------------||
D |-----------------------------------------|----------|----------------||
A |-7-7-7-7-7-12-12-12-12-12-8--8--8--8--8--|-8--10-8--|-15-------------||
E |-----------------------------------------|----------|----------------||
Verse part 1
e |-----------------------------|-----------|---------------------------||
H |-----------------------------|-----------|---------------------------||
G |-222222---222222555222222----|-101010555-|---------------------------||
D |-222222333222222555222222333-|-101010555-|-3333355555----------------||
A |-000000333000000333000000333-|-8-8-8-333-|-3333355555----------------||
E |-------555---------------555-|-----------|-1111133333----------------||
pm xxxxxxxxxxxxxxxxxxxxxxxxxxx xxxxxxxxx xxxxxxxxxx

Verse part 2 2x
e |-----------------------------|-----------|---------------------------||
H |-----------------------------|-----------|---------------------------||
G |-222222---222222555222222----|-101010555-|---------------------------||
D |-222222333222222555222222333-|-101010555-|-3333355555----------------||
A |-000000333000000333000000333-|-8-8-8-333-|-3333355555----------------||
E |-------555---------------555-|-----------|-1111133333----------------||
xxxx xxxx
Chorus 4x
e |---------------------------------------------------------------------||
H |---------------------------------------------------------------------||
G |-2222-5555-----------------------------------------------------------||
D |-2222-5555-5555-3333-------------------------------------------------||
A |-0000-3333-5555-3333-------------------------------------------------||
E |-----------3333-1111-------------------------------------------------||

Verse part 1 2x
e |-----------------------------|-----------|---------------------------||
H |-----------------------------|-----------|---------------------------||
G |-222222---222222555222222----|-101010555-|---------------------------||
D |-222222333222222555222222333-|-101010555-|-3333355555----------------||
A |-000000333000000333000000333-|-8-8-8-333-|-3333355555----------------||
E |-------555---------------555-|-----------|-1111133333----------------||
pm xxxxxxxxxxxxxxxxxxxxxxxxxxx xxxxxxxxx xxxxxxxxxx

Verse part 2 2x
e |-----------------------------|-----------|---------------------------||
H |-----------------------------|-----------|---------------------------||
G |-222222---222222555222222----|-101010555-|---------------------------||
D |-222222333222222555222222333-|-101010555-|-3333355555----------------||
A |-000000333000000333000000333-|-8-8-8-333-|-3333355555----------------||
E |-------555---------------555-|-----------|-1111133333----------------||
xxxx xxxx
Chorus 4x
e |---------------------------------------------------------------------||
H |---------------------------------------------------------------------||
G |-2222-5555-----------------------------------------------------------||
D |-2222-5555-5555-3333-------------------------------------------------||
A |-0000-3333-5555-3333-------------------------------------------------||
E |-----------3333-1111-------------------------------------------------||

Break 2x
(I´m not 100% sure) Help... :o)
e |---------------------------------------------------|-----------------||
H |---------------------------------------------------|-----------------||
G |---------------------------------------------------|-------------5555||
D |-------------5555------------------------33335555--|-5555555533335555||
A |-777777773333333377777777333355557777777711113333--|-5555555533333333||
E |-555555551111----555555551111333355555555----------|-333333331111----||
PM xxxxxxxxxxxxxxxxxxxxxxxxxxxxxxxxxxxxxxxxxxxxxxxx

Bridge 2. Guitar 1x
|--------------------------|--------------------------|-----------------||
|--------------------------|--------------------------|-----------------||
|--------------------------|--------------------------|-------------5555||
|--------------------------|--------------------------|-5555555533335555||
|-0-3-0-7-0-3-5-8-10-8-----|-0-3-0-7-0-3-5-3-3-2-2-2--|-5555555533333333||
|----------------------8-8-|--------------------------|-333333331111----||

Chorus 4x
e |---------------------------------------------------------------------||
H |---------------------------------------------------------------------||
G |-2222-5555-----------------------------------------------------------||
D |-2222-5555-5555-3333-------------------------------------------------||
A |-0000-3333-5555-3333-------------------------------------------------||
E |-----------3333-1111-------------------------------------------------||

Ends on
e |---||
H |---||
G |-2-||
D |-2-||
A |-0-||
E |---||
=====================================================

LIFE LESS FRIGHTENING
=====================================================

V1. = Verse 1
V2. = Verse 2
x = pm

Intro
2. Guitar ?x (listen the Song)
e|------------------|
H|-6565656565656565-|
G|-5555555555555555-|
D|------------------|
A|------------------|
E|------------------|

1. Guitar
e|-----------------|
H|-----------------|
G|-99997910910-12--|
D|-----------------|
A|-7777578-7-8-10--|
E|-----------------|

2. Guitar
e|------------------|
H|------------------|
G|------------------|
D|-7777777733335555-|
A|-7777777733335555-|
E|-5555555511113333-|

1. Guitar
e|--------------------------------------------|
H|--------------------------------------------|
G|-9-10-12-5-77---9-10-12-5-73--7-10-12-5-77--|
D|--------------------------------------------|
A|-7-8--10-3-55---7-8--10-3-51--7-8--10-3-55--|
E|--------------------------------------------|

e|------------------|-----|
H|------------------|-----|
G|-99999791091012---|-----|
D|------------------|-7---|
A|-77777578-7-810---|-7---|
E|------------------|-5---|

Verse
Only Bass V1. "Suffering for..."
V2 "Hang me out..."
1. + 2. Guitar V1. "...negative for Happyness"
V2. "...doing nothing I still run"
e|----------------------|
H|----------------------|
G|------------9-10-12---|
D|--Pickslide-----------|
A|------------7-8--10---|
E|----------------------|


1. Guitar V1. = "Flat line, no puls, but eyes open..."
V2. = "Time again i have found myself stuttering..."
e|----------------------------------|
H|----------------------------------|
G|---------55544-----------55547777-|
D|-77757775-----55577757775---------|
A|----------------------------------|
E|----------------------------------|
xxxxxxxxxxxxxxxxxxxxxxxxxxxxxxxxx

(Why are we losing))
1. + 2. Guitar
e|--------------------------------------------|
H|--------------------------------------------|
G|---------55544-----999999991010101012121212-|
D|-77757775-----5555-999999991010101012121212-|
A|-------------------77777777-8-8-8-810101010-|
E|--------------------------------------------|
xxxxxxxxxxxxxxxxxx

"I dont ask for much truth be told i settel for"
Chorus
e|----------------------------------|
H|----------------------------------|
G|-----------------55555555---------|
D|-77777777333333335555555555555555-|
A|-77777777333333333333333355555555-|
E|-5555555511111111--------33333333-|

"a life less frightening" (2x)
e|------------------------------------|
H|------------------------------------|
G|-----------------55555555-9-7-10-9--|
D|-777777773333333333333333-----------|
A|-777777773333333333333333-7-5-8--7--|
E|-5555555511111111-------------------|

Bridge Part1 (Is there a God...)
e|--------------------------------------------------------|
H|--------------------------------------------------------|
G|--------------------------------------------------------|
D|-777777779-9-9-9-10-10-10-10777777779-9-9-9-10-10-10-10-|
A|-77777777-------------------77777777--------------------|
E|-555555557-7-7-7-8--8--8--8-555555557-7-7-7-8--8--8--8--|

e|-------------------------------------------------------------------------|
H|-------------------------------------------------------------------------|
G|-10-10-10-10-10-10-10-10-9-9-9-9-9-9-9-9-7-7-7-7-7-7-7-7-7-7-7-7-7-7-7-7-|
D|-------------------------------------------------------------------------|
A|-8--8--8--8--8--8--8--8--7-7-7-7-7-7-7-7-5-5-5-5-5-5-5-5-5-5-5-5-5-5-5-5-|
E|-------------------------------------------------------------------------|

Bridge Part2 (So blow a Kiss...)
e|--------------------------------------------|
H|--------------------------------------------|
H|--------------------------------------------|
D|-7--109-77--10-9-10-12--10-9-10-12--10-9-10-|
A|--------------------------------------------|
E|-5--8-7-55--8--7-8--10--8--7-8--10--8--7-8--|

e|-------------------------------------------------------------------|
H|-------------------------------------------------------------------|
G|--------------------------------------10-10-10-10-10-10-10-10-10---|
D|-7---10-9-7-7---10-9-10-12---10-9--10-10-10-10-10-10-10-10-10-10---|
A|--------------------------------------8--8--8--8--8--8--8--8--8----|
E|-5---8--7-5-5---8--7-8--10---8--7--8--8--8--8--8--8--8--8--8--8----|

Last Chorus
e|------------------------------------|-----|
H|------------------------------------|-----|
G|---------9-7-10-7-55555555-9-7-10-9-|-7---|
D|-77777777---------55555555----------|-7---|
A|-777777777-5-8--7-33333333-7-5-8--7-|-5---|

End on
e|---|
H|---|
G|---|
D|-7-|
A|-7-|
E|-5-|
===================================================

PAPER WINGS
===================================================

Title: Paper Wings
Artist: Rise Against
Album: Siren Song of the Counter Culture

Tabbed by: Hank Cramer (bodomchild420@aol.com)

--Tune Down 1/2 Step--
D#, G#, C#, F#, A#, D# [or]
Eb, Ab, Db, Gb, Bb, Eb

-INTRO/CHORUS-

Eb|--------------------------------------------------||
Bb|--------------------------------------------------||
Gb|-9-9-9-9-9-9-9-9-9-9-9-9--------------8-8-8-8-8-8-||
Db|-9-9-9-9-9-9-9-9-9-9-9-9--9-9-9-9-9-9-6-6-6-6-6-6-||
Ab|-7-7-7-7-7-7-7-7-7-7-7-7--6-6-6-6-6-6-------------||
Eb|--------------------------------------------------||

Eb|--------------------------------------------------||
Bb|--------------------------------------------------||
Gb|-6-6-6-6-6-6-6-6-6-6-6-6--------------------------||
Db|-6-6-6-6-6-6-6-6-6-6-6-6--7-7-7-7-7-7-7-7-7-7-7-7-||
Ab|-4-4-4-4-4-4-4-4-4-4-4-4--7-7-7-7-7-7-7-7-7-7-7-7-||
Eb|--------------------------5-5-5-5-5-5-5-5-5-5-5-5-||

-SOLO [INTRO/CHORUS]-

Eb|-7-5-4-5-4----7-5-9-9-9----5-4---4----------4-----||
Bb|-------------------------------7---7----7-5---7-5-||
Gb|--------------------------------------------------||
Db|--------------------------------------------------||
Ab|--------------------------------------------------||
Eb|--------------------------------------------------||

-VERSUS RIFF1-

Eb|--------------------------------------------------||
Bb|--------------------------------------------------||
Gb|--6-6-------------------4-4--4/5----2-2-2-2-2-2---||
Db|--6-6----2-2-2-2-2-2----4-4--4/5----2-2-2-2-2-2---||
Ab|--4-4----2-2-2-2-2-2----2-2--2/3----0-0-0-0-0-0---||
Eb|---------0-0-0-0-0-0------------------------------||

-VERSUS RIFF2-

Eb|--------------------------------------------------||
Bb|--------------------------------------------------||
Gb|--6-6-----------------444444-222222-444444-222222-||
Db|--6-6----2-2-2-2-2-2--444444-222222-444444-222222-||
Ab|--4-4----2-2-2-2-2-2--222222-000000-222222-000000-||
Eb|---------0-0-0-0-0-0------------------------------||

-BRIDGE-

Eb|--------------------------------------------------||
Bb|--------------------------------------------------||
Gb|-------------4-4-4-4-4-4-2-2-2-2-2-2-4-4-4-4-4-4--||
Db|-2-2-2-2-2-2-4-4-4-4-4-4-2-2-2-2-2-2-4-4-4-4-4-4--||
Ab|-2-2-2-2-2-2-2-2-2-2-2-2-0-0-0-0-0-0-2-2-2-2-2-2--||
Eb|-0-0-0-0-0-0--------------------------------------||

-[GUITAR SOLO]-
Eb|------------------------------------------7-||
Bb|--5-5-7p5-4--5-5-7p5-4--5-5-7p5-4-5-5-4-4-0-||
Gb|--------------------------------------------||
Db|--------------------------------------------||
Ab|--------------------------------------------||
Eb|--------------------------------------------||

Eb|---------------------------------------5-5-5-4-4-4-7-7-7-7-7-7--||
Bb|-0-0h5h7-0h5h7-0h5h7-0h5h7-0h5h7-0h5h7-5-5-5-5-5-5-5-5-5-5-5-5--||
Gb|----------------------------------------------------------------||
Db|----------------------------------------------------------------||
Ab|----------------------------------------------------------------||
Eb|----------------------------------------------------------------||

Eb|-----------------------------0-0-0--------------||
Bb|-5-5-7p5--4-4-4----7p5--4-4--0-0-0--4-4-4-4--7--||
Gb|------------------------------------4-4-4-4-----||
Db|------------------------------------------------||
Ab|------------------------------------------------||
Eb|------------------------------------------------||

Eb|-0-7-0-0-5-0-0-4-0-7-0-0-5-0-0-4-0-7-0-0-5-0-0-4-0-4h5p4-0-0-0--||
Bb|---------------------------------------------------------7-7-7--||
Gb|----------------------------------------------------------------||
Db|----------------------------------------------------------------||
Ab|----------------------------------------------------------------||
Eb|----------------------------------------------------------------||

-INTRO[x3]-
-VERSUS RIFF1[x3]-
-VERSUS RIFF2-
-CHORUS[x2]
-VERSUS RIFF1[x3]-
-VERSUS RIFF2-
-CHORUS[x2]-
-BRIDGE[x4]-
-CHORUS[CLEANx2]-
-CHORUS[x4]-
===================================================

BLOOD TO BLEED
===================================================

Tabbed by:Canadianezzy
Email:Canadianezzy@hotmail.com

Tuning:Standard Tuning

(Bass Intro)

Verse(x2)
-----------------------------------------------------------------|
-----------------------------------------------------------------|
-6-6666666-444-6-666666666-222-6-666666666666-444---------666666-|
-6-6666666-444-6-666666666-222-6-666666666666-444-222-444-666666-|
-4-4444444-222-4-444444444-000-4-444444444444-222-222-444-444444-|
--------------------------------------------------000-222--------|
pm******* *** ********* *** ************ ***

Chorus (Guitar 1)
----------------------------------------|
----------------------------------------|
-99999-8-99999-8-111111-13-13-13-999-888|
-xxxxx-x-xxxxx-x-x-x-x--x--x--x--xxx-xxx|
-77777-6-77777-6-9-9-9--11-11-11-777-666|
----------------------------------------|

------------------------------------|
------------------------------------|
-99999-8-99999-8-888-11-11-11-999999|
-xxxxx-x-xxxxx-x-xxx-x--x--x--xxxxxx|
-77777-6-77777-6-666-9--9--9--777777|
------------------------------------|
----------------------------------------|
----------------------------------------|
-99999-8-99999-8-111111-13-13-13-999-888|
-xxxxx-x-xxxxx-x-x-x-x--x--x--x--xxx-xxx|
-77777-6-77777-6-9-9-9--11-11-11-777-666|
----------------------------------------|

------------------------------------|
------------------------------------|
-99999-8-99999-8-999-13-13-13-11-11-|
-xxxxx-x-xxxxx-x-xxx-x--x--x--x--x--|
-77777-6-77777-6-777-11-11-11-9--9--|
------------------------------------|

Chorus (Guitar 2)
----------------------------|
----------------------------|
-222222-222222-444444-666666|
-222222-222222-444444-666666|
-000000-222222-222222-444444|
--------000000--------------|

-----------------------------|
-----------------------------|
-222222-222222-444444-666-444|
-222222-222222-444444-666-444|
-000000-222222-222222-444-222|
--------000000---------------|

----------------------------|
----------------------------|
-222222-222222-444444-666666|
-222222-222222-444444-666666|
-000000-222222-222222-444444|
--------000000--------------|

------------------------------------------------|
------------------------------------------------|
-222222-222222-444444-222222222222-444444444444-|
-222222-222222-444444-222222222222-444444444444-|
-000000-222222-222222-000000000000-222222222222-|
--------000000----------------------------------|
Verse (x2)

Chorus (x2)

Solo:
-444444-----0-2-0---7777----9----------------------------|
--------2-4-------4------10---9--------------------------|
--------------------------------/6-/8-/9-/11-9999-11-9-8-|
---------------------------------------------------------|
---------------------------------------------------------|
---------------------------------------------------------|

-44444-5-777777-12-12-12-12-9-12-11-7-9999-7-5-444444-5-4-0~---------------|
----------------------------------------------------------------4444-5-4-2-|
---------------------------------------------------------------------------|
---------------------------------------------------------------------------|
---------------------------------------------------------------------------|
---------------------------------------------------------------------------|

2nd Guitar (behind the solo) (x2)
---------------------------------------------------------------------------|
---------------------------------------------------------------------------|
-666666666666-222222222222--------------444444444444-----------------------|
-666666666666-222222222222-222222222222-444444444444-----------------------|
-444444444444-000000000000-222222222222-222222222222-----------------------|
---------------------------000000000000------------------------------------|
Lead plays this during bridge in backround
part 1
---------------------------------|
-2-2-2-2-2-2-2-2-0-2-4-----------|
---------------------------------| x3 then ...
---------------------------------|
---------------------------------|
---------------------------------|
part 2
---------------------------------|
-------4-4-4-2-2-2--0-2-4-0------|
-1-1-1---------------------------| then go back into part 1
---------------------------------|
---------------------------------|
---------------------------------|

Bridge (x3)
----------------------------------------------------|----------------------|
----------------------------------------------------|----------------------|
-666666666666-222222222222--------------------------|6---------------------|
-666666666666-222222222222-222222222222-666666666666|6---------------------|
-444444444444-000000000000-222222222222-666666666666|4---------------------|
---------------------------000000000000-444444444444|----------------------|

(Bass Part)

Chorus (x2)

On chorus the last time, do the 4th endings like so; 4 times
e|-------------------------------------------------------------------------|
B|-------------------------------------------------------------------------|
G|-999999-13-13-13--11-11-11-99-8------------------------------------------|
D|-xxxxxx-x--x--x---x--x--x--xx-x------------------------------------------|
A|-777777-11-11-11--9--9--9--77-6------------------------------------------|
E|-------------------------------------------------------------------------|

End on:
---
---
-6-
-6-
-4-
---

| / slide up
| \ slide down
| h hammer-on
| p pull-off
| ~ vibrato
| + harmonic
| x Mute note
============================================================================

TO THEM THESE STREETS BELONG
===================================================

~Intro~
e|-------------------------------------------------------------|
b|-------------------------------------------------------------|
g|-------------------------------------------------------------|
d|---------6-----8-------4------6------------------------------|x2
A|--4------4-----6-------2------4------4-----------------------|
E|--2----------------------------------2-----------------------|

~Verse~
e|-------------------------------------------------------------|
b|-------------------------------------------------------------|
g|----3---3---3------------------------------------------------|
d|--3-1-3-1-3-1---4-4-4-4---6-6--------------------------------|x4
A|--1---1---1-----2-2-2-2-4-4-4--------------------------------|
E|------------------------2------------------------------------|

~Chorus~
e|----------------------------|-------------------------------------|
b|----------------------------|-------------------------------------|
g|----------------------------|-------------------------------------|
d|--8-8-8-8-8--pause-8--6--x1-|4-4-4-4-4-4-4-4-6-6-6-6-6-6-6-6--x2--|
A|--6-6-6-6-6--pause-6--4-----|2-2-2-2-2-2-2-2-4-4-4-4-4-4-4-4------|
E|----------------------------|-------------------------------------|

e|-------------------------------------------------------------|
b|-------------------------------------------------------------|
g|-------------------------------------------------------------|
d|--8-8-8-8-6-6-6-6-4-4-4-4-4-4-4-4-4-4-4-4-4-4-4-4--6-6-6-6-6-|
A|--6-6-6-6-4-4-4-4-2-2-2-2-2-2-2-2-2-2-2-2-2-2-2-2--4-4-4-4-4-|
E|-------------------------------------------------------------|

e|-------------------------------------------------------------|
b|-------------------------------------------------------------|
g|-------------------------------------------------------------|
d|--6-6-6--8-8-8-8-8-8-8-8-8-8-8-8-8-8-8-8---------------------|
A|--4-4-4--6-6-6-6-6-6-6-6-6-6-6-6-6-6-6-6---------------------|
E|-------------------------------------------------------------|

~Verse~
e|-------------------------------------------------------------|
b|-------------------------------------------------------------|
g|----3---3---3------------------------------------------------|
d|--3-1-3-1-3-1---4-4-4-4---6-6--------------------------------|x4
A|--1---1---1-----2-2-2-2-4-4-4--------------------------------|
E|------------------------2------------------------------------|

~Chorus~
e|----------------------------|-------------------------------------|
b|----------------------------|-------------------------------------|
g|----------------------------|-------------------------------------|
d|--8-8-8-8-8--pause-8--6--x1-|4-4-4-4-4-4-4-4-6-6-6-6-6-6-6-6--x2--|
A|--6-6-6-6-6--pause-6--4-----|2-2-2-2-2-2-2-2-4-4-4-4-4-4-4-4------|
E|----------------------------|-------------------------------------|

e|-------------------------------------------------------------|
b|-------------------------------------------------------------|
g|-------------------------------------------------------------|
d|--8-8-8-8-6-6-6-6-4-4-4-4-4-4-4-4-4-4-4-4-4-4-4-4--6-6-6-6-6-|
A|--6-6-6-6-4-4-4-4-2-2-2-2-2-2-2-2-2-2-2-2-2-2-2-2--4-4-4-4-4-|
E|-------------------------------------------------------------|

e|-------------------------------------------------------------|
b|-------------------------------------------------------------|
g|-------------------------------------------------------------|
d|--6-6-6--8-8-8-8-8-8-8-8-8-8-8-8-8-8-8-8---------------------|
A|--4-4-4--6-6-6-6-6-6-6-6-6-6-6-6-6-6-6-6---------------------|
E|-------------------------------------------------------------|

~Outro 1~
e|-------------------------------------------------------------|
b|-------------------------------------------------------------|
g|-------------------------------------------------------------|
d|---------6-----8-------4------6------------------------------|x2
A|--4------4-----6-------2------4------4-----------------------|
E|--2----------------------------------2-----------------------|

~Outro 2~ (Play All Though Twice)
e|-------------------------------------------------------------|
b|-------------------------------------------------------------|
g|-------------------------------------------------------------|
d|-------------------6-6-6-6-6-6-6-6--8-8-8-8-8-8-8-8-8-8-8-8--|
A|--4-4-4-4-4-4-4-4--4-4-4-4-4-4-4-4--6-6-6-6-6-6-6-6-6-6-6-6--|
E|--2-2-2-2-2-2-2-2--------------------------------------------|

e|-------------------------------------------------------------|
b|-------------------------------------------------------------|
g|-------------------------------------------------------------|
d|--8-8-8-8--4-4-4-4-4-4-4-4--6-6-6-6-6-6-6-6------------------|
A|--6-6-6-6--2-2-2-2-2-2-2-2--4-4-4-4-4-4-4-4--4-4-4-4-4-4-4-4-|
E|---------------------------------------------2-2-2-2-2-2-2-2-|

e|-------------------------------------------------------------|
b|-------------------------------------------------------------|
g|-------------------------------------------------------------|
d|-------------------------------------------------------------|
A|--4-4-4-4-4-4-4-4--------------------------------------------|
E|--2-2-2-2-2-2-2-2--------------------------------------------|
===================================================

TIP THE SCALES
===================================================

ARTIST: Rise Against
TITLE: Tip The Scales
ALBUM: Siren Song of the Counter Culture
TABBED BY: kryptonite22
TUNING: Standard (E A D G B e)
NOTES: There is a lot of palm muting in this song and it was quite hard to tab out,
but I think it's right. Near enough, anyway.

INTRO PART ONE
e|------------------------------------|
B|------------------------------------|
G|------------------------------------|
D|-------------9---7------------------|
A|---7---7-------------10---9---10----|
E|-0---0---0-0---0---0----0---0----0--|

INTRO PART TWO - LEAD (ALSO CHORUS)
e|------------------------------|---------------------------------------|
B|------------------------------|---------------------------------------|
G|-9--9-9-9-16--14--12--11--12--|-7--7-7-12--12--11--11-11-11-11-11-11--|
D|------------------------------|---------------------------------------|
A|-7--7-7-7-14--12--10--9---10--|-5--5-5-10--10--9---9--9--9--9--9--9---|
E|------------------------------|---------------------------------------|

INTRO PART TWO - RHYTHM (ALSO CHORUS)
e|--------------------------------------------------------------|
B|--------------------------------------------------------------|
G|----------5--4--4-4-4-4-4-4-7-5--5-5-5-5-2--7--7-7-7-7-7-7-7--|
D|-2--2-2-2-5--4--4-4-4-4-4-4-7-5--5-5-5-5-2--7--7-7-7-7-7-7-7--|
A|-2--2-2-2-3--2--2-2-2-2-2-2-5-3--3-3-3-3-0--5--5-5-5-5-5-5-5--|
E|-0--0-0-0-----------------------------------5--5-5-5-5-5-5-5--|

PRE-VERSE
|-----------------------|
|-----------------------|
|-11--11--11--11--11-11-|
|-----------------------|
|-----------------------|
|-----------------------|

CHORUS (SAME AS INTRO PART TWO)

VERSE - LEAD
|-------------------------------------------------------------------|
|-------------------------------------------------5/8--7---7h8------|
|---------------------------------------------------------------7---|
|-2---12-14--12--10--9--10--9---9-10--9--7--5--7--------------------|
|-2-----------------------------------------------------------------|
|-0-----------------------------------------------------------------|

VERSE - RHYTHM
|--------------------------------------------------------|
|--------------------------------------------------------|
|--------------------------------4-----------------------|
|-2--2-2-2-2-2-2-2-2-2-2-2-2-2-2-4--4-4-4-5--4--2--5--2--|
|-2--2-2-2-2-2-2-2-2-2-2-2-2-2-2-2--2-2-2-3--2--0--5--0--|
|-0--0-0-0-0-0-0-0-0-0-0-0-0-0-0-------------------3-----|

BRIDGE
|-7------------------------------------------------|-----------------|----|
|-8--8--8-7--8--8--8-7--8--8--8-10--10-10--10--10--|-----------------|----|
|-9--9--9-9--9--9--9-9--9--9--9-9---9--9---9---9---|-7-7-7-7-7-7-7-7-|----|
|--------------------------------------------------|-7-7-7-7-7-7-7-7-|-2--|
|--------------------------------------------------|-5-5-5-5-5-5-5-5-|-2--|
|--------------------------------------------------|-----------------|-0--|

OUTRO PART ONE
|-----------------------------------|-------------------------|
|-----------------------------------|-------------------------|
|-----------------------------------|-------------------------|
|-------------9---7-----------------|-7--7--5--5--4--4--4h5p4-|
|---7---7-------------10---9---10---|-5--5--5--5--5--5--------|
|-0---0---0-0---0---0----0---0----0-|-------------------------|

OUTRO PART TWO
|-------------------------------------------------------------------------|
|-------------------------------------------------------------------------|
|--------9-9-9-9-11-11-11-11-12-12-12--------9-9-9-9-11-11-11-11-12-12-12-|
|-2--2-2------------------------------2--2-2-5-5-5-5-7--7--7--7--9--9--9--|
|-2--2-2-7-7-7-7-9--9--9--9--10-10-10-2--2-2-7-7-7-7-9--9--9--9--10-10-10-|
|-0--0-0------------------------------0--0-0------------------------------|

|---------------------------------------------------------|-----|
|---------------------------------------------------------|-----|
|-5--5-5-5-5-4--5--5-5-5-5-4--7--7-7----------------------|-----|
|-5--5-5-5-5----5--5-5-5-5----7--7-7-5--5--4--4-4-4-4-4-4-|-2---|
|-3--3-3-3-3----3--3-3-3-3----5--5-5-5--5--5--5-5-5-5-5-5-|-2---|
|---------------------------------------------------------|-0---|
===================================================

Источник: http://ultimate-guitar.com/

Категория: Табы | Добавил: OceanDrive (25.03.2008)
Просмотров: 898 | Рейтинг: 0.0/0
Всего комментариев: 0
Добавлять комментарии могут только зарегистрированные пользователи.
[ Регистрация | Вход ]