Приветствую Вас, Гость! Регистрация RSS
Понедельник, 19.11.2018
Главная » Статьи » Лирика » Табы

Siren Song of the Counter Culture - 2
ANYWHERE BUT HERE
===================================================

Rise Against - Anywhere But Here
===================================================
Tuning: Eb Ab Db Gb Bb eb
Tabbed: Juho Kilkki juho.kilkk@gmail.com

INTRO
Guitar 1 3x
eb|--------------------------------|--------------------------------|
Bb|--------------------------------|--------------------------------|
Gb|----------------2-2-2-2-2-2-2-2-|4-4-4-4-4-4-4-4-4-4-4-4-4-4-4-4-|
Db|2-2-2-2-2-2-2-2-2-2-2-2-2-2-2-2-|4-4-4-4-4-4-4-4-4-4-4-4-4-4-4-4-|
Ab|2-2-2-2-2-2-2-2-0-0-0-0-0-0-0-0-|2-2-2-2-2-2-2-2-2-2-2-2-2-2-2-2-|
Eb|0-0-0-0-0-0-0-0-----------------|--------------------------------|

Guitar 2 3x
eb|----------------------------------------|--------------------------------------------|
Bb|----------------------------------------|12-12-12-12-12-12-12------------------------|
Gb|13-13-13-13-11-11-13-13-9-9-9-9-8-8-8-8-|---------------------14-13-13-13-11-9-9-9-9-|
Db|------------------------7-7-7-7-7-7-7-7-|9--9--9--9--9--9--9-------------------------|
Ab|11-11-11-11-9--9--11-11-----------------|---------------------12-11-11-11-9--7-7-7-7-|
Eb|----------------------------------------|--------------------------------------------|

VERSE 1 4x
eb|----------------------------------------------------------------|
Bb|----------------------------------------------------------------|
Gb|6-6-6-6-6-6-6-6-----------------9-9-9-9-9-9-9-9-----------------|
Db|6-6-6-6-6-6-6-6-7-7-7-7-7-7-7-7-9-9-9-9-9-9-9-9-9-9-9-9-9-9-9-9-|
Ab|4-4-4-4-4-4-4-4-7-7-7-7-7-7-7-7-7-7-7-7-7-7-7-7-9-9-9-9-9-9-9-9-|
Eb|----------------5-5-5-5-5-5-5-5-----------------7-7-7-7-7-7-7-7-|

PRE CHORUS
Pm * * * * * * * * * * * * * *
eb|----------------------------------------------------------------|
Bb|----------------------------------------------------------------|
Gb|6-6-6-6-6-6-6-6-4~--------------2-2-2-2-2-2-2-2-4~--------------|
Db|6-6-6-6-6-6-6-6-4~--------------2-2-2-2-2-2-2-2-4~--------------|
Ab|4-4-4-4-4-4-4-4-2~--------------0-0-0-0-0-0-0-0-2~--------------|
Eb|----------------------------------------------------------------|

CHORUS
Same as Intro

VERSE 2 4x
eb|----------------|
Bb|----------------|
Gb|6~--2~------4~--|
Db|6~--2~--2~--4~--|
Ab|4~--0~--2~--2~--|
Eb|--------0~------|

PRE CHORUS

CHORUS

VERSE 3
Guitar 1 4x
eb|----------------|
Bb|----------------|
Gb|6~--2~------4~--|
Db|6~--2~--2~--4~--|
Ab|4~--0~--2~--2~--|
Eb|--------0~------|

Guitar 2 16x
eb|----------------|
Bb|0-4-5-0-4-5-4-5-|
Gb|----------------|
Db|----------------|
Ab|----------------|
Eb|----------------|

CHORUS

After the chorus singer repeats "still filled with you" and this comes then.
eb|--------------------------------|
Bb|--------------------------------|
Gb|2-2-2-2-2-2-2-2-2-2-2-2-2-2-2-2-|
Db|2-2-2-2-2-2-2-2-2-2-2-2-2-2-2-2-|
Ab|0-0-0-0-0-0-0-0-0-0-0-0-0-0-0-0-|
Eb|--------------------------------|

VERSE 4
Same as Verse 3 but
Guitar 1 2x
Guitar 2 8x

ENDING
Guitar 1
eb|----||
Bb|----||
Gb|----||
Db|2~--||
Ab|2~--||
Eb|0~--||

Guitar 2
eb|----||
Bb|0~--||
Gb|----||
Db|----||
Ab|----||
Eb|----||
===================================================

GIVE IT ALL
===================================================

Intro (x2)
e|---------------|
H|---------------|
G|---------------|
D|-7---3---6---4-|
A|-4---4---4---4-|
E|---------------|

Verse Part 1 (x2)
e|--------------------------------------|
H|--------------------------------------|
G|--------------7777----------7777-9999-|
D|-44--44--44---7777-44--44---7777-9999-|
A|-44--44--44---5555-44--44---5555-7777-|
E|-22--22--22--------22--12-------------|

Verse Part 2 (x2)
E|--------------------------------------|
H|--------------------------------------|
G|--------------7777----------7777-9999-|
D|-44--44--44---7777-44--44---7777-9999-|
A|-4422442244---5555-44--44---5555-7777-|
E|-2200220022--------22002200-----------|

Chorus (2x)
E|--------------------------------------------|
H|--------------------------------------------|
G|--------------------------------------------|
D|----------99999999-111111111111111-77777777-|
A|-77777777-77777777-111111111111111-55555555-|
E|-55555555----------9-9-9-9-9-9-9-9----------|

Verse Part 1 (x2)
E|--------------------------------------|
H|--------------------------------------|
G|--------------7777----------7777-9999-|
D|-44--44--44---7777-44--44---7777-9999-|
A|-44--44--44---5555-44--44---5555-7777-|
E|-22--22--22--------22--22-------------|

Verse Part 2 (x2)
E|---------------------------------------|
H|---------------------------------------|
G|---------------7777----------7777-9999-|
D|--44--44--44---7777-44--44---7777-9999-|
A|--4422442244---5555-44--44---5555-7777-|
E|--2200220022--------22002200-----------|
PM- xxxxxxxxxx xxxxxxxx

Chorus (2x)
E|--------------------------------------------|
H|--------------------------------------------|
G|--------------------------------------------|
D|----------99999999-111111111111111-77777777-|
A|-77777777-77777777-111111111111111-55555555-|
E|-55555555----------9-9-9-9-9-9-9-9----------|

Bridge Part 1

E|----|
H|----|
G|----|
D|-7-6|
A|-7-6|
E|-5-4|

Bridge Part 2 (x2)
E|----------------------|
H|----------------------|
G|------7777------------|
D|-4444-7777-2222-------|
A|-4444-5555-2222-44-33-|
E|-2222------0000-55-44-|

Bridge Part 3
E|----------------------|
H|----------------------|
G|------7777------------|
D|--4444-7777-2222-------|
A|--4444-5555-2222-44-33-|
E|--2222------0000-55-44-|
PM xxxx xxxx xxxx xx xx

Bridge Part 4
E|----------------------|
H|----------------------|
G|------7777------------|
D|--4444-7777-2222-2-----|
A|--4444-5555-2222-2-----|
E|--2222------0000-0-----|
PM xxxx xxxx xxxx

Chorus (4x)
E|--------------------------------------------|
H|--------------------------------------------|
G|--------------------------------------------|
D|----------99999999-111111111111111-77777777-|
A|-77777777-77777777-111111111111111-55555555-|
E|-55555555----------9-9-9-9-9-9-9-9----------|

===================================================

SWING LIFE AWAY
===================================================

Tabbed by: Philippe LeSaux
Email: lessthanflip@snet.net

Tuning: Eb, Ab, Db, Gb, Bb, eb

Guitar 1 3x
e|---------------------------------------------------------------------------|
B|-<12>--------------------<7>-----------------------------------------------|
G|------<12>----------<12>-----<7>-------------------------------------------|
D|-----------<12>-<7>--------------------------------------------------------|
A|---------------------------------------------------------------------------|
E|---------------------------------------------------------------------------|

Guitar 2 3x
e|---------------------------------------------------------------------------|
B|-0------------3-33333-3333-------------------------------------------------|
G|---0---2-0----0-00000-0000-------------------------------------------------|
D|-----0-----4--x-xxxxx-xxxx-------------------------------------------------|
A|--------------3-33333-3333-------------------------------------------------|
E|---------------------------------------------------------------------------|

Guitar 2
e|---------------------------------------------------------------------------|
B|--3-33333-33333-33333x-----------------------------------------------------|
G|--2-22222-22222-22222x-----------------------------------------------------|
D|--0-00000-00000-00000x-----------------------------------------------------|
A|--0-00000-00000-00000x-----------------------------------------------------|
E|---------------------------------------------------------------------------|

Verse 3x Repeat this line
e|------------------------------|--------------------------------------------|
B|-:--------------------------:-|(3-33333-33333-33333)-----------------------|
G|---------------5-55555-5555---|-0-00000-00000-00000x-----------------------|
D|---2-22225-55555-55555-5555---|-4-44444-44444-44444x-----------------------|
A|-:-2-22225-55553-33333-3333-:-|-5-55555-55555-55555x-----------------------|
E|---0-00003-3333---------------|--------------------------------------------|
pm . . . . . . . Let up on pm 2nd time

Chorus
e|---0-0000------------------0-0000---------------------|--------------------|
B|-:-0-00003-33333-33333-33330-00003-33333-33333-3333-:-|-3-33333x-----------|
G|---x-xxxx0-00000-00002-2222x-xxxx0-00002-22222-2222---|-2-22222x-----------|
D|---2-22220-0000x-xxxx0-00002-22220-00000-00000-0000---|-0-00000x-----------|
A|-:-2-2222x-xxxx3-33330-00002-2222x-xxxx0-00000-0000-:-|-0-00000x-----------|
E|---0-00003-3333------------0-00003-3333---------------|--------------------|

Verse

Chorus (don't cut off last chord)

Bridge 2x
e|-0-00003-33333-33333-3333--------------------------------------------------|
B|-0-00003-33333-33333-3333--------------------------------------------------|
G|-x-xxxx0-00000-00000-0000--------------------------------------------------|
D|-2-22220-0000x-xxxxx-xxxx--------------------------------------------------|
A|-2-2222x-xxxx3-33333-3333--------------------------------------------------|
E|-0-00003-3333--------------------------------------------------------------|

e|-0-00003-33330-00003-3333--------------------------------------------------|
B|-0-00003-33331-11113-3333--------------------------------------------------|
G|-x-xxxx0-00002-22220-0000--------------------------------------------------|
D|-2-22220-00002-2222x-xxxx--------------------------------------------------|
A|-2-2222x-xxxx0-00003-3333--------------------------------------------------|
E|-0-00003-3333--------------------------------------------------------------|

e|-0-00003-33333-33333-33333-3333-------3------------------------------------|
B|-0-00003-33333-33333-33333-3333-0-----3------------------------------------|
G|-x-xxxx0-00000-00000-00000-0000---0---0------------------------------------|
D|-2-22220-0000x-xxxxx-xxxxx-xxxx-----0-0------------------------------------|
A|-2-2222x-xxxx3-33333-33333-3333-------x------------------------------------|
E|-0-00003-3333-------------------------3------------------------------------|

Yes, I am aware that the Am chord in the bridge is incorrect, but I can't seem to
find the correct chord. All I know is it's some form of A. The strumming is only an
approximate, I trust you can figure it out, as with dynamics. wink

| / slide up
| \ slide down
| h hammer-on
| p pull-off
| ~ vibrato
| + harmonic
| x mute note
| <> natural harmonic
===============================================================================

RUMORS OF MY DEMISE HAVE BEEN GREATLY EXAGGERATED
========================================================

Im not sure, but i thinkt it´s half step down...
Standard is ok, but the Sound is better by 1/2 down

1. Guitar Intro

e-------------------------------------------------|
H-------------------------------------------------|
G-55-3-5-3---------------55-3-5-3-----------------| (2x)
D-55-3-5-3-33-3-3-66-6-6-55-3-5-3-33-3-3-66-6-6---|
A-33-1-3-1-33-3-3-66-6-6-33-5-3-5-33-3-3-66-6-6---|
E----------11-1-1-44-4-4----------11-1-1-44-4-4---|

2. Guitar

e-----------------------------------------|
H-----------------------------------------|
G--12--8--10-121312-8--10---121312--------|
D-----------------------------------------|
A--10--6---8—101110-6--8----101110--------|
E-----------------------------------------|

Verse
e-----------------------------------------------|
H-----------------------------------------------|
G-55-3-5----------------55-3-5------------------| (2x)
D-55-3-5--33-3-3-66-6-6-55-3-5--33-3-3-66-6-6---|
A-33-1-3--33-3-3-66-6-6-33-5-3--33-3-3-66-6-6---|
E---------11-1-1-44-4-4---------11-1-1-44-4-4---|
xxxxxxxxxxxxxxxxxxxxxxxxxxxxxxxxxxxxxxxxxxxxx

Chorus (Part 1)

e----------------------------------------------------------|
H----------------------------------------------------------|
G--------------------------------------------------555555--|
D-666666-333333-666666-333333-666666-333333-666666-555555--|
A-666666-333333-666666-333333-666666-333333-666666-333333--|
E-444444-111111-444444-111111-444444-111111-444444---------|

Chorus (Part 2)

e-----------------------------------------|
H-----------------------------------------|
G----------55555555-77777777-33333333-----| (2x)
D-33333333-55555555-77777777-33333333-----|
A-33333333-33333333-55555555-11111111-----|
E-11111111--------------------------------|

Verse

e-----------------------------------------------|
H-----------------------------------------------|
G-55-3-5----------------55-3-5------------------| (2x)
D-55-3-5--33-3-3-66-6-6-55-3-5--33-3-3-66-6-6---|
A-33-1-3--33-3-3-66-6-6-33-5-3--33-3-3-66-6-6---|
E---------11-1-1-44-4-4---------11-1-1-44-4-4---|
xxxxxxxxxxxxxxxxxxxxxxxxxxxxxxxxxxxxxxxxxxx

Chorus (Part1)

e----------------------------------------------------------|
H----------------------------------------------------------|
G--------------------------------------------------555555--|
D-666666-333333-666666-333333-666666-333333-666666-555555--|
A-666666-333333-666666-333333-666666-333333-666666-333333--|
E-444444-111111-444444-111111-444444-111111-444444---------|

Chorus (Part 2)

e-----------------------------------------|
H-----------------------------------------|
G----------55555555-77777777-33333333-----| (2x)
D-33333333-55555555-77777777-33333333-----|
A-33333333-33333333-55555555-11111111-----|
E-11111111--------------------------------|

Braek

e-----------------------------------------------------------|
H-----------------------------------------------------------|
G-----3h5p3h55555-(?x listen the Song)----------------------|
D-55--------------------------------------------------------|
A-55--------------------------------------------------------|
E-33--------------------------------------------------------|
x x x xxxxx

e-----------------------------------------------------------|
H-----------------------------------------------------------|
G-----------------------------------------------------------|
D-55---5-55---5-33---3-77---7-55---5-55---5-33---3-77-------| (2x)
A-55---5-55---5-33---3-77---7-55---5-55---5-33---3-77-------|
E-33---3-33---3-11---1-55---5-33---3-33---3-11---1-55-------|

e-------------------------------------------------------------------------|
H-------------------------------------------------------------------------|
G-------------------------------------------------------------------------| (2x)
D-5555555555555555-33333333-77777777-5555555555555555-33333333-77777777---|
A-5555555555555555-33333333-77777777-5555555555555555-33333333-77777777---|
E-3333333333333333-11111111-55555555-3333333333333333-11111111-55555555---|

Chorus (Part1)

e----------------------------------------------------------|
H----------------------------------------------------------|
G--------------------------------------------------555555--|
D-666666-333333-666666-333333-666666-333333-666666-555555--|
A-666666-333333-666666-333333-666666-333333-666666-333333--|
E-444444-111111-444444-111111-444444-111111-444444---------|

Chorus (Part 2)

e-----------------------------------------|
H-----------------------------------------|
G----------55555555-77777777-33333333-----| (4x)
D-33333333-55555555-77777777-33333333-----|
A-33333333-33333333-55555555-11111111-----|
E-11111111--------------------------------|

Источник: http://ultimate-guitar.com/

Категория: Табы | Добавил: OceanDrive (25.03.2008)
Просмотров: 1156 | Рейтинг: 3.0/1
Всего комментариев: 0
Добавлять комментарии могут только зарегистрированные пользователи.
[ Регистрация | Вход ]