Приветствую Вас, Гость! Регистрация RSS
Понедельник, 19.11.2018
Главная » Статьи » Лирика » Табы

Appeal To Reason Tab

Long Forgotten Sons Tab

Intro
Guitar 1
|------------------------|
|------------------------|
|---9-8~--------9~-------|
|11----------11----------|
|------------------------|
|------------------------|

|------------------------------------------------|
|------------------------------------------------|
|13-13-13-13-16-16-16-16-18-18-18-18-18-18-18-18-|
|------------------------------------------------|
|------------------------------------------------|
|------------------------------------------------|

Guitar 2
|----------------------------------------------------------------|
|----------------------------------------------------------------|
|6666666699999999444444444444444466666666999999994444444444444444
|6666666699999999444444444444444466666666999999994444444444444444
|4444444477777777222222222222222244444444777777772222222222222222
|----------------------------------------------------------------

Guitar 1
|------------------------------------------------|
|------------------------------------------------|
|13-13-13-13-16-16-16-16-18-18-18-18-18-18-18-18-|
|------------------------------------------------|
|------------------------------------------------|
|------------------------------------------------|

Guitar 2
|-------------------------------------------------------------------|
|-------------------------------------------------------------------|
|6666666699999999444444444444444466666666999999994444444411111199999
|66666666999999994444444444444444666666669999999944444444-x-x-xxxxxx-|
|44444444777777772222222222222222444444447777777722222222-9-9-977777-|
|--------------------------------------------------------------------|


verse 1


Guitar 1
|----------------------------------------------------------------|
|----------------------------------------------------------------|
|6~--------------4~--------------4~------2~------6~--------------|
|6~--------------4~--------------4~------2~--6~--6~--------------|
|4~--------------4~--------------2~------0~--6~--4~--------------|
|--------------------------------------------4~------------------|

|------------------------------------------------|
|------------------------------------------------|
|6~--------------4~--------------4~------2~------|
|6~--------------4~--------------4~------2~--6~--|
|4~--------------4~--------------2~------0~--6~--|
|--------------------------------------------4~--|

Guitar 2
|--
|--
|6~
|x-
|4~
|--


Link to chorus
Guitar 1
(this was the clearest way i could tab this part (sorry it's still not very clear))
|------------------------------------------------|
|------------------------------------------------|
|-9--9--9--9--9--9--9--8--8--8--8--8--8--8--8--8-|
|11-11-11-11-11-11-11-11-11-11-11-11-11-11-11-11-|
|------------------------------------------------|
|------------------------------------------------|

|-----------------------------------------|
|-----------------------------------------|
|9-9-9-9-9-9-9-11-11-11-11-11-11-11-11-11-|
|9-9-9-9-9-9-9--9--9--9--9--9--9--9--9--9-|
|-----------------------------------------|
|-----------------------------------------|

Guitar 2
 |--------------------------------|
 |--------------------------------|
 |22222222222222224444444444444444
 |22222222222222224444444444444444
 |00000000000000002222222222222222
 |--------------------------------
pm********************************

Chorus
Guitar 1
|------------------------------------------------|
|------------------------------------------------|
|13-13-13-13-16-16-16-16-18-18-18-18-18-18-18-18-| X4
|------------------------------------------------|
|------------------------------------------------|
|------------------------------------------------|

Guitar 2
|----------------------------------------------------------------|
|----------------------------------------------------------------|
|6666666699999999444444444444444466666666999999994444444444444444
|6666666699999999444444444444444466666666999999994444444444444444 X4
|4444444477777777222222222222222244444444777777772222222222222222
|----------------------------------------------------------------

Link to Verse
Guitar 1
|-------------------------------------|
|-------------------12~---------------|
|6~-------------8-9-----------9--8~---|
|6~----------11-----------------------|
|6~-----------------------------------|
|-------------------------------------|

Verse 2
Guitar 1
(the '8' from the link rings through until the first chord here)
|----------------------------------------------------------------|
|----------------------------------------------------------------|
|----------------4~--------------4~------2~------6~--------------|
|----------------4~--------------4~------2~--6~--6~--------------|
|----------------4~--------------2~------0~--6~--4~--------------|
|--------------------------------------------4~------------------|

|------------------------------------------------|
|------------------------------------------------|
|6~--------------4~--------------4~------2~------|
|6~--------------4~--------------4~------2~--6~--|
|4~--------------4~--------------2~------0~--6~--|
|--------------------------------------------4~--|

Link to Chorus
Guitar 1
|------------------------------------------------|
|------------------------------------------------|
|-9--9--9--9--9--9--9--8--8--8--8--8--8--8--8--8-|
|11-11-11-11-11-11-11-11-11-11-11-11-11-11-11-11-|
|------------------------------------------------|
|------------------------------------------------|

|-----------------------------------------|
|-----------------------------------------|
|9-9-9-9-9-9-9-11-11-11-11-11-11-11-11-11-|
|9-9-9-9-9-9-9--9--9--9--9--9--9--9--9--9-|
|-----------------------------------------|
|-----------------------------------------|

Guitar 2
 |--------------------------------|
 |--------------------------------|
 |22222222222222224444444444444444
 |22222222222222224444444444444444
 |00000000000000002222222222222222
 |--------------------------------
pm********************************

Chorus
Guitar 1
|------------------------------------------------|
|------------------------------------------------|
|13-13-13-13-16-16-16-16-18-18-18-18-18-18-18-18-| X4
|------------------------------------------------|
|------------------------------------------------|
|------------------------------------------------|

Guitar 2
|----------------------------------------------------------------|
|----------------------------------------------------------------|
|6666666699999999444444444444444466666666999999994444444444444444
|6666666699999999444444444444444466666666999999994444444444444444 X4
|4444444477777777222222222222222244444444777777772222222222222222
|----------------------------------------------------------------

Bridge
I'm not really sure what guitar 1 is doing in the bridge
Guitar 2
|--------------------------------|
|--------------------------------|
|22222222222222224444444444444444
|22222222222222224444444444444444 X4
|00000000000000002222222222222222
|--------------------------------

Bass Palm mute part

Guitar 1
|------------------------|
|------------------------|
|---9-8~--------9~-------|
|11----------11----------|
|------------------------|
|------------------------|

Chrous
Guitar 1
|------------------------------------------------|
|------------------------------------------------|
|13-13-13-13-16-16-16-16-18-18-18-18-18-18-18-18-| X4
|------------------------------------------------|
|------------------------------------------------|
|------------------------------------------------|

Guitar 2
|--------------------------------|
|--------------------------------|
|66666666999999994444444444444444
|66666666999999994444444444444444 X4
|44444444777777772222222222222222
|--------------------------------

End
Guitar 1
|---
|---
|-8~
|11~
|---
|---

Guiatr 2
|--
|--
|6~
|6~
|4~
|--

-----------------------------------------------------------------------------------------------------

Re-education Through Labor Tab

E-------------------|
B-------------------|
G-------------------|
D--2-2-2-2-2-2-2-2--| 4 Times (32 strums in total)
A--2-2-2-2-2-2-2-2--|
E--0-0-0-0-0-0-0-0--|
PM . . . . . . . .

E------------------|
B------------------|
G--------5-5-------|
D--2-2-2-5-5-5-5-7-| 3 Times, then
A--2-2-2-3-3-5-5-7-|
E--0-0-0-----3-3-5-|

E-----------------|
B-----------------|
G--------5-5------|
D--2-2-2-5-5-5-5--| Mute after Last Strum
A--2-2-2-3-3-5-5--|
E--0-0-0-----3-3--|

E---------------------|
B---------------------|
G---------------------| 3 times, then
D--2-0-2/5-7-5h7p5p0--|
A---------------------|
E---------------------|

E---------------|
B---------------|
G---------------|
D--2-0-2/5-0-0--| mute after last note
A---------------|
E---------------|

E---------------------|
B---------------------|
G---------------------| 4 times, then end on
D--2-0-2/5-7-5h7p5p0--|
A---------------------|
E---------------------|

E---------------------|
B---------------------|
G---------------------| Don't let ring, stop abruptly
D--2------------------|
A---------------------|
E---------------------|

"To the sound of a heartbeat pounding away..."

E------------------|
B------------------|
G--------5-5-------|
D--2-2-2-5-5-5-5-7-| 2 Times, then
A--2-2-2-3-3-5-5-7-|
E--0-0-0-----3-3-5-|

E------------------|
B------------------|
G------------------|
D------------------| Let Ring
A--7~~~~~~~~~~~~~~~
E------------------

E------------------|
B------------------|
G--------5-5-------|
D--2-2-2-5-5-5-5-7-| 2 Times, then
A--2-2-2-3-3-5-5-7-|
E--0-0-0-----3-3-5-|

E-----------------------------------|
B-----------------------------------|
G-----------------------------------| 2 times, but on the second time don't
D--7-7-x-7-7-7-x-7-7-7-x-7-7-7-(5)--| play the chord in parentheses
A--7-7-x-7-7-7-x-7-7-7-x-7-7-7-(5)--|
E--5-5-x-5-5-5-x-5-5-5-x-5-5-5-(3)--|

E-----------------------------------|
B-----------------------------------|
G--5-5-x-5-5-5-x-5-5-5-x-5-5-5-5----|
D--5-5-x-5-5-5-x-5-5-5-x-5-5-5-5----|
A--3-3-x-3-3-3-x-3-3-3-x-3-3-3-3----|
E-----------------------------------|

E---------------------|
B---------------------|
G--7-7-7-7-7-7-7-7-7--| Mute after last stum
D--7-7-7-7-7-7-7-7-7--|
A--5-5-5-5-5-5-5-5-5--|
E---------------------|

E--------------------------|
B--------------------------|
G--------7--------7-----5--| These are the chords for the chorus in order
D--2--5--7--7--2--7--7--5--| Figure out the strumming for yourself
A--2--5--5--7--2--5--7--3--| Play Through Twice
E--0--3-----5--0-----5-----|

E------------------|
B------------------|
G--------5-5-------|
D--2-2-2-5-5-5-5-7-|
A--2-2-2-3-3-5-5-7-|
E--0-0-0-----3-3-5-|

E-----------------|
B-----------------|
G--------5-5------|
D--2-2-2-5-5-5-5--| Mute after Last Strum
A--2-2-2-3-3-5-5--|
E--0-0-0-----3-3--|

E---------------------|
B---------------------|
G---------------------| 3 times, then immediately from there
D--2-0-2/5-7-5h7p5p0--|
A---------------------|
E---------------------|

E--------------------------|
B--5-3---------------------|
G------5-4-2---------------|
D------------5-4-0-2-------|~~~~~ let ring
A--------------------------|
E--------------------------|

E------------------|
B------------------|
G--------5-5-------|
D--2-2-2-5-5-5-5-7-| 2 Times
A--2-2-2-3-3-5-5-7-|
E--0-0-0-----3-3-5-|

E---------------12-12-12-12-12-12~~~~~-|
B--------------------------------------|
G--------------------------------------| * means natural harmonic
D--------------------------------------|
A---7--7--7--7-------------------------|
E--------------------------------------|
NH * * * * * * * * * *

E------------------|
B------------------|
G--------5-5-------|
D--2-2-2-5-5-5-5-7-| 2 Times
A--2-2-2-3-3-5-5-7-|
E--0-0-0-----3-3-5-|

E---------------------------------|
B---------------------------------|
G---------------------------------|
D--7-7-x-7-7-7-x-7-7-7-x-7-7-7-5--|
A--7-7-x-7-7-7-x-7-7-7-x-7-7-7-5--|
E--5-5-x-5-5-5-x-5-5-5-x-5-5-5-3--|

E----------------------------------|
B----------------------------------|
G----------------------------------|
D--7-7-x-7-7-7-x-7-7-7-x-7-7-9-10--|
A--7-7-x-7-7-7-x-7-7-7-x-7-7-9-10--|
E--5-5-x-5-5-5-x-5-5-5-x-5-5-7-8---|

E--------------------------|
B--------------------------|
G--------7--------7-----5--| Chorus once normal
D--2--5--7--7--2--7--7--5--|
A--2--5--5--7--2--5--7--3--|
E--0--3-----5--0-----5-----|

E--------------------|
B--------------------|
G--------7--------7--| then only up to this chord
D--2--5--7--7--2--7--|
A--2--5--5--7--2--5--|
E--0--3-----5--0-----|

E-----------------------------------|
B-----------------------------------|
G-----------------------------------|
D--7-7-7-7-7-7-7-7-7-7-7-7-7-7-7-7--|
A--7-7-7-7-7-7-7-7-7-7-7-7-7-7-7-7--|
E--5-5-5-5-5-5-5-5-5-5-5-5-5-5-5-5--|
PM . . . . . . . . . . . . . . . .

E-----------------------------------|
B-----------------------------------|
G--5-5-5-5-5-5-5-5-5-5-5-5-5-5-5-5--|
D--5-5-5-5-5-5-5-5-5-5-5-5-5-5-5-5--|
A--3-3-3-3-3-3-3-3-3-3-3-3-3-3-3-3--|
E-----------------------------------|
PM . . . . . . . . . . . . . . . .

E-----------------------------------|
B-----------------------------------|
G--4-4-4-4-4-4-4-4-4-4-4-4-4-4-4-4--|
D--4-4-4-4-4-4-4-4-4-4-4-4-4-4-4-4--|
A--2-2-2-2-2-2-2-2-2-2-2-2-2-2-2-2--|
E-----------------------------------|
PM . . . . . . . . . . . . . . . .

E-----------------------------------|
B-----------------------------------|
G--7-7-7-7-7-7-7-7-7-7-7-7-7-7-7-7--|
D--7-7-7-7-7-7-7-7-7-7-7-7-7-7-7-7--|
A--5-5-5-5-5-5-5-5-5-5-5-5-5-5-5-5--|
E-----------------------------------|
PM . . . . . . . . . . . . . . . .

E--------------------|
B--------------------|
G--5--7-----4--5--7--|
D--5--7--2--4--5--7--| figure out strumming for yourself
A--3--5--2--2--3--5--|
E--------0-----------|

E---------|
B---------|
G--9~~~~~~ let ring
D--9~~~~~~
A--7~~~~~~
E---------

E--------------------------------------------|
B---------------------7h8-------8------------|
G--9/7-7~~~14/12-14~~~----7h9~~~--7-7--------| * means natural harmonic
D--x-x-x~~~-x-x--x~~~~----------------7~~~~~-|
A--7/5-5~~~12/10-12~~~-----------------------|
E--------------------------------------------|
NH * *

E-----------------------------------|
B-----------------------------------|
G--9-9-9-9-9-7-9~~~~~~~~~~~~~-------|
D--x-x-x-x-x-x-x~~~~~~~~~~~~~-------| let ring
A--7-7-7-7-7-5-7~~~~~~~~~~~~~-------|
E-----------------------------------|

"I won't crawl on my knees for you..."

E-------7-----10-----7-----10-----7-----10-----7------|
B---------8------8-----8------8-----8------8-----8----|
G--7h9~~----9------9-----9------9-----9------9-----9--|
D-----------------------------------------------------|
A-----------------------------------------------------|
E-----------------------------------------------------|

E-----------------------------------------------------------------------|
B--7h8p7h8p7h8p7h8---7h8p7h8p7h8p7h8p7h8p7h8p7h8p7h8p7h8p7h8p7h8p7------|
G------------------9-----------------------------------------------7h9--|
D-----------------------------------------------------------------------|
A-----------------------------------------------------------------------|
E-----------------------------------------------------------------------|

E--------------------------|
B--------------------------|
G--------7--------7-----5--| Chorus once normal, then
D--2--5--7--7--2--7--7--5--|
A--2--5--5--7--2--5--7--3--|
E--0--3-----5--0-----5-----|

E--------------|
B--------------|
G--------7-----|
D--2--5--7--7--| first half of chorus
A--2--5--5--7--|
E--0--3-----5--|

E--------------------------------------------------|
B--------------------------------------------------|
G----------7-7-7-7---------------------------------|
D--2-2-2-2-7-7-7-7-7-7-7-7---2-0-2/5-7-5h7p5p0--2--|
A--2-2-2-2-5-5-5-5-7-7-7-7----------------------2--|
E--0-0-0-0-5-5-5-5-5-5-5-5----------------------0--|


--------------------------------------------------------------------------

The Dirt Whispered Tab

Tuning:Standard

Intro:
But the dirt made no sound tonight...

Guitar 1
e|---------------------------------------------------------------------------|
B|---------------------------------------------------------------------------|
G|-----66--8/10---6666666----66--8/10---8888888---66--8/10---6666666---------|
D|-----xx--x/x----xxxxxxx----xx--x/x----xxxxxxx---xx--x/x----xxxxxxx---------|
A|-----44--6/8----4444444----44--6/8----6666666---44--6/8----4444444---------|
E|---------------------------------------------------------------------------|
Intro contnued:
e|---------------------------------------------------------------------------|
B|---------------------------------------------------------------------------|
G|----11111111-10101010--88888----5-6----------------------------------------|
D|-----x-x-x-x--x-x-x-x--xxxxx----x-x----------------------------------------|
A|-----9-9-9-9--8-8-8-8--66666----3-4----------------------------------------|
E|---------------------------------------------------------------------------|

Guitar 2:
e|---------------------------------------------------------------------------|
B|---------------------------------------------------------------------------|
G|---------666--66666666--------666------------------------------------------|
D|---444---xxx--66666666---444--xxx----666666666-----------------------------|
A|---444---444--44444444---444--444----666666666-----------------------------|
E|---222-------------------222---------444444444-----------------------------|
Repeat two times

Verse: Echoes of songs still lurk

Both Guitars:
e|---------------------------------------------------------------------------|
B|---------------------------------------------------------------------------|
G|---------666--66666666--------66-------------------------------------------|
D|---444---xxx--66666666---444--xx-----666666666-----------------------------|
A|---444---444--44444444---444--44-----666666666-----------------------------|
E|---222--------********---222---------444444444-----------------------------|
  ** ** ********
Verse continued: Danced just to please the gods
e|---------------------------------------------------------------------------|
B|---------------------------------------------------------------------------|
G|---------666--66666666--------66-------------------------------------------|
D|---444---xxx--66666666---444--xx-----666666666-----------------------------|
A|---444---444--44444444---444--44-----666666666-----------------------------|
E|---222--------********---222---------444444444-----------------------------|
  ** **

Pre-Chorus: So it goes

Guitar one:
e|---------------------------------------------------------------------------|
B|---------------------------------------------------------------------------|
G|---1010101010101010--88888888--66666666------------------------------------|
D|---x-x-x-x-x-x-x-x---xxxxxxxx--xxxxxxxx------------------------------------|
A|---8-8-8-8-8-8-8-8---66666666--44444444------------------------------------|
E|---------------------------------------------------------------------------|

Guitar Two:
e|---------------------------------------------------------------------------|
B|---------------------------------------------------------------------------|
G|---33333333----------------------------------------------------------------|
D|---33333333--66666666--44444444--------------------------------------------|
A|---11111111--66666666--44444444--------------------------------------------|
E|-------------44444444--22222222--------------------------------------------|


Both Guitars:
e|---------------------------------------------------------------------------|
B|---------------------------------------------------------------------------|
G|---------------------------------------------------------------------------|
D|-----44444444-44444444-----------------------------------------------------|
A|-----44444444-44444444-----------------------------------------------------|
E|-----22222222-22222222-----------------------------------------------------|
  ********

Chorus: On cold nights

Both Guitars:
e|---------------------------------------------------------------------------|
B|---------------------------------------------------------------------------|
G|---666666666666------------------------------------------------------------|
D|---666666666666--666666666666--444444444444444444444444--------------------|
A|---444444444444--666666666666--444444444444444444444444--------------------|
E|-----------------444444444444--222222222222222222222222--------------------|

Chorus continued: The concrete
e|---------------------------------------------------------------------------|
B|---------------------------------------------------------------------------|
G|---666666666666------------------------------666666---------6~-------------|
D|---666666666666--666666666666--444444444444--xxxxxx--666666-x~-------------|
A|---444444444444--666666666666--444444444444--444444--666666-4~-------------|
E|-----------------444444444444--222222222222----------444444----------------|


Guitar One:
e|---------------------------------------------------------------------------|
B|--14--14~------------------------------------------------------------------|
G|----13-----13~-------------------------------------------------------------|
D|---------------------------------------------------------------------------|
A|---------------------------------------------------------------------------|
E|---------------------------------------------------------------------------|

Verse 2: The postcard says

Both Guitars:
e|---------------------------------------------------------------------------|
B|---------------------------------------------------------------------------|
G|-------66666666-------66----------------666--6666666-------66--------------|
D|---4---xxxxxxxx--444--xx-66666666--444--xxx--6666666--444--xx--66666666----|
A|---4---44444444--444--44-66666666--444--444--4444444--444--44--66666666----|
E|---2-------------222-----44444444--222-------*******--222------44444444----|
  ** ******* ** **

Pre-Chorus: But that was then


Guitar one:
e|---------------------------------------------------------------------------|
B|---------------------------------------------------------------------------|
G|---1010101010101010--88888888--66666666------------------------------------|
D|---x-x-x-x-x-x-x-x---xxxxxxxx--xxxxxxxx------------------------------------|
A|---8-8-8-8-8-8-8-8---66666666--44444444------------------------------------|
E|---------------------------------------------------------------------------|

Guitar Two:
e|---------------------------------------------------------------------------|
B|---------------------------------------------------------------------------|
G|---33333333----------------------------------------------------------------|
D|---33333333--66666666--44444444--------------------------------------------|
A|---11111111--66666666--44444444--------------------------------------------|
E|-------------44444444--22222222--------------------------------------------|

Both Guitars:
e|---------------------------------------------------------------------------|
B|---------------------------------------------------------------------------|
G|---------------------------------------------------------------------------|
D|-----44444444-44444444-----------------------------------------------------|
A|-----44444444-44444444-----------------------------------------------------|
E|-----22222222-22222222-----------------------------------------------------|
  ********

Chorus: On cold nights

Both Guitars
e|---------------------------------------------------------------------------|
B|---------------------------------------------------------------------------|
G|---666666666666------------------------------------------------------------|
D|---666666666666--666666666666--444444444444444444444444--------------------|
A|---444444444444--666666666666--444444444444444444444444--------------------|
E|-----------------444444444444--222222222222222222222222--------------------|

Chorus continued: The concrete
e|---------------------------------------------------------------------------|
B|---------------------------------------------------------------------------|
G|---666666666666----------------------------------66666666------------------|
D|---666666666666--666666666666--4444444444444444--xxxxxxxx--66666666--------|
A|---444444444444--666666666666--4444444444444444--44444444--66666666--------|
E|-----------------444444444444--2222222222222222------------44444444--------|


Interlude:A destination

Guitar 1
e|---------------------------------------------------------------------------|
B|-----------6666-------------6666-------------6666----77776666--------------|
G|---55556666----6666-55556666----6666-55556666----6666--------66668888------|
D|---------------------------------------------------------------------------|
A|---------------------------------------------------------------------------|
E|---------------------------------------------------------------------------|

e|---------------------------------------------------------------------------|
B|-----------6666-------------66667777----------6666----77776666-------------|
G|---55556666----6666-55556666---------55556666-----6666--------66668888-----|
D|---------------------------------------------------------------------------|
A|---------------------------------------------------------------------------|
E|---------------------------------------------------------------------------|

Guitar 2:
e|---------------------------------------------------------------------------|
B|---------------------------------------------------------------------------|
G|---------------------------------------6666666666666666-888888888888888----|
D|----888888888888888--666666666666666---6666666666666666-888888888888888----|
A|----888888888888888--666666666666666---4444444444444444-666666666666666----|
E|----666666666666666--444444444444444---------------------------------------|
  ************** **************
Repeat Two Times


Both Guitars:
e|---------------------------------------------------------------------------|
B|---------------------------------------------------------------------------|
G|--6666666666666666--5555555555555555--66~----------------------------------|
D|--xxxxxxxxxxxxxxxx--xxxxxxxxxxxxxxxx--66~----------------------------------|
A|--4444444444444444--3333333333333333--44~----------------------------------|
E|---------------------------------------------------------------------------|


Both Guitars
e|---------------------------------------------------------------------------|
B|---------------------------------------------------------------------------|
G|---------------------------------------------------------------------------|
D|---444444444---------------------------------------------------------------|
A|---444444444---------------------------------------------------------------|
E|---222222222---------------------------------------------------------------|
  *******

Pickslide

Chorus: On cold nights

Both Guitars:
e|---------------------------------------------------------------------------|
B|---------------------------------------------------------------------------|
G|---666666666666------------------------------------------------------------|
D|---666666666666--666666666666--444444444444444444444444--------------------|
A|---444444444444--666666666666--444444444444444444444444--------------------|
E|-----------------444444444444--222222222222222222222222--------------------|

Chorus continued: The concrete
e|---------------------------------------------------------------------------|
B|---------------------------------------------------------------------------|
G|---66666666----------------------66666666----------------------------------|
D|---66666666--66666666--44444444--xxxxxxxx--66666666------------------------|
A|---44444444--66666666--44444444--44444444--66666666------------------------|
E|-------------44444444--22222222------------44444444------------------------|

Ending Chorus: I slip

Guitar 1:
e|---------------------------------------------------------------------------|
B|---------------------------------------------------------------------------|
G|-----6--6/8/10------6/8/10/6---6/8/10/11-10-11-10--------------------------|
D|-----x--x/x/x-------x/x/x-/x---x/x/x/-x--x--x--x---------------------------|
A|-----4--4/6/8-------4/6/8-/4---4/6/8/-9--8--9--8---------------------------|
E|---------------------------------------------------------------------------|

e|---------------------------------------------------------------------------|
B|---------------------------------------------------------------------------|
G|-----6--6/8/10------6/8/10/6---6/8/10/11-10-11-13--------------------------|
D|-----x--x/x/x-------x/x/x-/x---x/x/x/-x--x--x--x---------------------------|
A|-----4--4/6/8-------4/6/8-/4---4/6/8/-9--8--9--11--------------------------|
E|---------------------------------------------------------------------------|


Guitar 2:
e|---------------------------------------------------------------------------|
B|---------------------------------------------------------------------------|
G|---666666666666------------------------------------------------------------|
D|---666666666666--666666666666--444444444444444444444444--------------------|
A|---444444444444--666666666666--444444444444444444444444--------------------|
E|-----------------444444444444--222222222222222222222222--------------------|

e|---------------------------------------------------------------------------|
B|---------------------------------------------------------------------------|
G|---666666666666----------------------------------66666666------------------|
D|---666666666666--666666666666--4444444444444444--xxxxxxxx--66666666--------|
A|---444444444444--666666666666--4444444444444444--44444444--66666666--------|
E|-----------------444444444444--2222222222222222------------44444444--------|


End On:

Guitar One
e|----------|
B|----------|
G|----18~---|
D|----x-~---|
A|----16~---|
E|----------|

Guitar Two
e|---------|
B|---------|
G|----6~---|
D|----6~---|
A|----4~---|
E|---------|

--------------------------------------------------------------------------------

From Heads Unworthy Chords

VERSE:
E D C C D E
  We are the children you reject and disregard
  D C C D E
These aching cries come from the bottom of our hearts
  D C C D E 
You can't disown us now, we are your own flesh and blood
  D C C D E  
We don't disappear just because your eyes are shut, Now tell me

PRE-CHORUS:
C
Love, Loss
  D
Like a bullets path

Tear, Through
  C
The cavity of my chest

Lights, Out
  D(ring out)
Because the fuse has blown

INTERLUDE:
D--16-16-16-16-14-12//11//12
A---x--x--x--x--x--x//-x//-x
E--14-14-14-14-12-10//-9//10
  B B B B A G F# G
(chords if you want to play lower on the neck)  
   
CHORUS:
E G D
As your castles crumble slowly
C G D  
We watch them fall
E G D
The crown slips from heads unworthy
C G D
 As we take control

VERSE:
This is the family that we crossed or never had
This is a war that was lost the day that it began
Because it's the race we run, but it keeps us at the start
It's the song I sung from the bottom of heart, That's how we

PRE-CHORUS:
Read, You
Like a polygraph
Not, One
Single bone in your back
own, Up
To how you let us down

INTERLUDE

CHORUS:
As your castles crumble slowly
We watch them fall
The crown slips from heads unworthy
As we take control

BRIDGEI:
C D
  Except for you and me, love
  E G C
Everyone is the same, we know we know, we know we know..
  D
But if to live, we have to be numb
  E G C
I'd rather know the pain, I'd rather know I'd rather know..
  D
This happens almost never
  E
But it happened once to me
  G C
And this will never be same...
  D
The ends we seam together

BRIDGEII: (played same as chorus but softer)
E G D
I'm not after fame and fortune
C G D
I'm after you
E G D C G D(ring out)
 When I've served my time I swear I will come for you

CHORUS:
As your castles crumble slowly
We watch them fall
The crown slips from heads unworthy
Right on to ours, but I'm after you

END WITH:
C G D


Категория: Табы | Добавил: REMO (14.12.2008)
Просмотров: 1188 | Рейтинг: 5.0/1
Всего комментариев: 0
Добавлять комментарии могут только зарегистрированные пользователи.
[ Регистрация | Вход ]